  0
SECTION
  2
HEADER
  9
$ACADVER
  1
AC1018
  9
$ACADMAINTVER
 70
     0
  9
$DWGCODEPAGE
  3
ANSI_1252
  9
$INSBASE
 10
0.0
 20
0.0
 30
0.0
  9
$EXTMIN
 10
1.000000000000000E+20
 20
1.000000000000000E+20
 30
1.000000000000000E+20
  9
$EXTMAX
 10
-1.000000000000000E+20
 20
-1.000000000000000E+20
 30
-1.000000000000000E+20
  9
$LIMMIN
 10
0.0
 20
0.0
  9
$LIMMAX
 10
12.0
 20
9.0
  9
$ORTHOMODE
 70
     0
  9
$REGENMODE
 70
     1
  9
$FILLMODE
 70
     1
  9
$QTEXTMODE
 70
     0
  9
$MIRRTEXT
 70
     1
  9
$LTSCALE
 40
1.0
  9
$ATTMODE
 70
     1
  9
$TEXTSIZE
 40
0.2
  9
$TRACEWID
 40
0.05
  9
$TEXTSTYLE
  7
Standard
  9
$CLAYER
  8
0
  9
$CELTYPE
  6
ByLayer
  9
$CECOLOR
 62
   256
  9
$CELTSCALE
 40
1.0
  9
$DISPSILH
 70
     0
  9
$DIMSCALE
 40
1.0
  9
$DIMASZ
 40
0.18
  9
$DIMEXO
 40
0.0625
  9
$DIMDLI
 40
0.38
  9
$DIMRND
 40
0.0
  9
$DIMDLE
 40
0.0
  9
$DIMEXE
 40
0.18
  9
$DIMTP
 40
0.0
  9
$DIMTM
 40
0.0
  9
$DIMTXT
 40
0.18
  9
$DIMCEN
 40
0.09
  9
$DIMTSZ
 40
0.0
  9
$DIMTOL
 70
     0
  9
$DIMLIM
 70
     0
  9
$DIMTIH
 70
     1
  9
$DIMTOH
 70
     1
  9
$DIMSE1
 70
     0
  9
$DIMSE2
 70
     0
  9
$DIMTAD
 70
     0
  9
$DIMZIN
 70
     0
  9
$DIMBLK
  1

  9
$DIMASO
 70
     1
  9
$DIMSHO
 70
     1
  9
$DIMPOST
  1

  9
$DIMAPOST
  1

  9
$DIMALT
 70
     0
  9
$DIMALTD
 70
     2
  9
$DIMALTF
 40
25.4
  9
$DIMLFAC
 40
1.0
  9
$DIMTOFL
 70
     0
  9
$DIMTVP
 40
0.0
  9
$DIMTIX
 70
     0
  9
$DIMSOXD
 70
     0
  9
$DIMSAH
 70
     0
  9
$DIMBLK1
  1

  9
$DIMBLK2
  1

  9
$DIMSTYLE
  2
Standard
  9
$DIMCLRD
 70
     0
  9
$DIMCLRE
 70
     0
  9
$DIMCLRT
 70
     0
  9
$DIMTFAC
 40
1.0
  9
$DIMGAP
 40
0.09
  9
$DIMJUST
 70
     0
  9
$DIMSD1
 70
     0
  9
$DIMSD2
 70
     0
  9
$DIMTOLJ
 70
     1
  9
$DIMTZIN
 70
     0
  9
$DIMALTZ
 70
     0
  9
$DIMALTTZ
 70
     0
  9
$DIMUPT
 70
     0
  9
$DIMDEC
 70
     4
  9
$DIMTDEC
 70
     4
  9
$DIMALTU
 70
     2
  9
$DIMALTTD
 70
     2
  9
$DIMTXSTY
  7
Standard
  9
$DIMAUNIT
 70
     0
  9
$DIMADEC
 70
     0
  9
$DIMALTRND
 40
0.0
  9
$DIMAZIN
 70
     0
  9
$DIMDSEP
 70
    46
  9
$DIMATFIT
 70
     3
  9
$DIMFRAC
 70
     0
  9
$DIMLDRBLK
  1

  9
$DIMLUNIT
 70
     2
  9
$DIMLWD
 70
    -2
  9
$DIMLWE
 70
    -2
  9
$DIMTMOVE
 70
     0
  9
$LUNITS
 70
     2
  9
$LUPREC
 70
     4
  9
$SKETCHINC
 40
0.1
  9
$FILLETRAD
 40
0.5
  9
$AUNITS
 70
     0
  9
$AUPREC
 70
     0
  9
$MENU
  1
.
  9
$ELEVATION
 40
0.0
  9
$PELEVATION
 40
0.0
  9
$THICKNESS
 40
0.0
  9
$LIMCHECK
 70
     0
  9
$CHAMFERA
 40
0.0
  9
$CHAMFERB
 40
0.0
  9
$CHAMFERC
 40
0.0
  9
$CHAMFERD
 40
0.0
  9
$SKPOLY
 70
     0
  9
$TDCREATE
 40
2458396.704699769
  9
$TDUCREATE
 40
2458396.621366435
  9
$TDUPDATE
 40
2458396.704701111
  9
$TDUUPDATE
 40
2458396.621367778
  9
$TDINDWG
 40
0.0000000116
  9
$TDUSRTIMER
 40
0.0000000116
  9
$USRTIMER
 70
     1
  9
$ANGBASE
 50
0.0
  9
$ANGDIR
 70
     0
  9
$PDMODE
 70
    65
  9
$PDSIZE
 40
0.0
  9
$PLINEWID
 40
0.0
  9
$SPLFRAME
 70
     0
  9
$SPLINETYPE
 70
     6
  9
$SPLINESEGS
 70
     8
  9
$HANDSEED
  5
343
  9
$SURFTAB1
 70
     6
  9
$SURFTAB2
 70
     6
  9
$SURFTYPE
 70
     6
  9
$SURFU
 70
     6
  9
$SURFV
 70
     6
  9
$UCSBASE
  2

  9
$UCSNAME
  2

  9
$UCSORG
 10
0.0
 20
0.0
 30
0.0
  9
$UCSXDIR
 10
1.0
 20
0.0
 30
0.0
  9
$UCSYDIR
 10
0.0
 20
1.0
 30
0.0
  9
$UCSORTHOREF
  2

  9
$UCSORTHOVIEW
 70
     0
  9
$UCSORGTOP
 10
0.0
 20
0.0
 30
0.0
  9
$UCSORGBOTTOM
 10
0.0
 20
0.0
 30
0.0
  9
$UCSORGLEFT
 10
0.0
 20
0.0
 30
0.0
  9
$UCSORGRIGHT
 10
0.0
 20
0.0
 30
0.0
  9
$UCSORGFRONT
 10
0.0
 20
0.0
 30
0.0
  9
$UCSORGBACK
 10
0.0
 20
0.0
 30
0.0
  9
$PUCSBASE
  2

  9
$PUCSNAME
  2

  9
$PUCSORG
 10
0.0
 20
0.0
 30
0.0
  9
$PUCSXDIR
 10
1.0
 20
0.0
 30
0.0
  9
$PUCSYDIR
 10
0.0
 20
1.0
 30
0.0
  9
$PUCSORTHOREF
  2

  9
$PUCSORTHOVIEW
 70
     0
  9
$PUCSORGTOP
 10
0.0
 20
0.0
 30
0.0
  9
$PUCSORGBOTTOM
 10
0.0
 20
0.0
 30
0.0
  9
$PUCSORGLEFT
 10
0.0
 20
0.0
 30
0.0
  9
$PUCSORGRIGHT
 10
0.0
 20
0.0
 30
0.0
  9
$PUCSORGFRONT
 10
0.0
 20
0.0
 30
0.0
  9
$PUCSORGBACK
 10
0.0
 20
0.0
 30
0.0
  9
$USERI1
 70
     0
  9
$USERI2
 70
     0
  9
$USERI3
 70
     0
  9
$USERI4
 70
     0
  9
$USERI5
 70
     0
  9
$USERR1
 40
0.0
  9
$USERR2
 40
0.0
  9
$USERR3
 40
0.0
  9
$USERR4
 40
0.0
  9
$USERR5
 40
0.0
  9
$WORLDVIEW
 70
     1
  9
$SHADEDGE
 70
     3
  9
$SHADEDIF
 70
    70
  9
$TILEMODE
 70
     1
  9
$MAXACTVP
 70
    64
  9
$PINSBASE
 10
0.0
 20
0.0
 30
0.0
  9
$PLIMCHECK
 70
     0
  9
$PEXTMIN
 10
1.000000000000000E+20
 20
1.000000000000000E+20
 30
1.000000000000000E+20
  9
$PEXTMAX
 10
-1.000000000000000E+20
 20
-1.000000000000000E+20
 30
-1.000000000000000E+20
  9
$PLIMMIN
 10
0.0
 20
0.0
  9
$PLIMMAX
 10
12.0
 20
9.0
  9
$UNITMODE
 70
     0
  9
$VISRETAIN
 70
     1
  9
$PLINEGEN
 70
     0
  9
$PSLTSCALE
 70
     1
  9
$TREEDEPTH
 70
  3020
  9
$CMLSTYLE
  2
Standard
  9
$CMLJUST
 70
     0
  9
$CMLSCALE
 40
1.0
  9
$PROXYGRAPHICS
 70
     1
  9
$MEASUREMENT
 70
     1
  9
$CELWEIGHT
370
    -1
  9
$ENDCAPS
280
     0
  9
$JOINSTYLE
280
     0
  9
$LWDISPLAY
290
     0
  9
$INSUNITS
 70
     6
  9
$HYPERLINKBASE
  1

  9
$STYLESHEET
  1

  9
$XEDIT
290
     1
  9
$CEPSNTYPE
380
     0
  9
$PSTYLEMODE
290
     1
  9
$FINGERPRINTGUID
  2
{A16F641A-EE67-4933-9E78-445F6CB45682}
  9
$VERSIONGUID
  2
{FAEB1C32-E019-11D5-929B-00C0DF256EC4}
  9
$EXTNAMES
290
     1
  9
$PSVPSCALE
 40
0.0
  9
$OLESTARTUP
290
     0
  9
$SORTENTS
280
   127
  9
$INDEXCTL
280
     0
  9
$HIDETEXT
280
     1
  9
$XCLIPFRAME
290
     0
  9
$HALOGAP
280
     0
  9
$OBSCOLOR
 70
   257
  9
$OBSLTYPE
280
     0
  9
$INTERSECTIONDISPLAY
280
     0
  9
$INTERSECTIONCOLOR
 70
   257
  9
$DIMASSOC
280
     2
  9
$PROJECTNAME
  1

  0
ENDSEC
  0
SECTION
  2
CLASSES
  0
CLASS
  1
ACDBDICTIONARYWDFLT
  2
AcDbDictionaryWithDefault
  3
ObjectDBX Classes
 90
        0
 91
       21
280
     0
281
     0
  0
CLASS
  1
VISUALSTYLE
  2
AcDbVisualStyle
  3
ObjectDBX Classes
 90
     4095
 91
       21
280
     0
281
     0
  0
CLASS
  1
MATERIAL
  2
AcDbMaterial
  3
ObjectDBX Classes
 90
     1153
 91
       21
280
     0
281
     0
  0
CLASS
  1
SCALE
  2
AcDbScale
  3
ObjectDBX Classes
 90
     1153
 91
       21
280
     0
281
     0
  0
CLASS
  1
TABLESTYLE
  2
AcDbTableStyle
  3
ObjectDBX Classes
 90
     4095
 91
       21
280
     0
281
     0
  0
CLASS
  1
MLEADERSTYLE
  2
AcDbMLeaderStyle
  3
ACDB_MLEADERSTYLE_CLASS
 90
     4095
 91
       21
280
     0
281
     0
  0
CLASS
  1
SUN
  2
AcDbSun
  3
SCENEOE
 90
     1153
 91
       21
280
     0
281
     0
  0
CLASS
  1
DICTIONARYVAR
  2
AcDbDictionaryVar
  3
ObjectDBX Classes
 90
        0
 91
       20
280
     0
281
     0
  0
CLASS
  1
CELLSTYLEMAP
  2
AcDbCellStyleMap
  3
ObjectDBX Classes
 90
     1152
 91
       20
280
     0
281
     0
  0
ENDSEC
  0
SECTION
  2
TABLES
  0
TABLE
  2
VPORT
  5
8
102
{ACAD_XDICTIONARY
360
2FC
102
}
330
0
100
AcDbSymbolTable
 70
     1
  0
VPORT
  5
29
330
8
100
AcDbSymbolTableRecord
100
AcDbViewportTableRecord
  2
*Active
 70
     0
 10
0.0
 20
0.0
 11
1.0
 21
1.0
 12
10.42990654205607
 22
4.5
 13
0.0
 23
0.0
 14
0.5
 24
0.5
 15
0.5
 25
0.5
 16
0.0
 26
0.0
 36
1.0
 17
0.0
 27
0.0
 37
0.0
 40
9.0
 41
1.972972972850329
 42
50.0
 43
0.0
 44
0.0
 50
0.0
 51
0.0
 71
     0
 72
   100
 73
     1
 74
     3
 75
     0
 76
     0
 77
     0
 78
     0
281
     0
 65
     1
110
0.0
120
0.0
130
0.0
111
1.0
121
0.0
131
0.0
112
0.0
122
1.0
132
0.0
 79
     0
146
0.0
  0
ENDTAB
  0
TABLE
  2
LTYPE
  5
5
330
0
100
AcDbSymbolTable
 70
     3
  0
LTYPE
  5
14
330
5
100
AcDbSymbolTableRecord
100
AcDbLinetypeTableRecord
  2
ByBlock
 70
     0
  3

 72
    65
 73
     0
 40
0.0
  0
LTYPE
  5
15
330
5
100
AcDbSymbolTableRecord
100
AcDbLinetypeTableRecord
  2
ByLayer
 70
     0
  3

 72
    65
 73
     0
 40
0.0
  0
LTYPE
  5
16
330
5
100
AcDbSymbolTableRecord
100
AcDbLinetypeTableRecord
  2
Continuous
 70
     0
  3
Solid line
 72
    65
 73
     0
 40
0.0
  0
LTYPE
  5
6E
330
5
100
AcDbSymbolTableRecord
100
AcDbLinetypeTableRecord
  2
AUSGEZOGEN
 70
     0
  3
durchgezogene Linie
 72
    65
 73
     0
 40
0.0
  0
LTYPE
  5
70
330
5
100
AcDbSymbolTableRecord
100
AcDbLinetypeTableRecord
  2
VERDECKT2_S2
 70
     0
  3
Kurzgestrichelt
 72
    65
 73
     2
 40
0.004
 49
0.002
 74
     0
 49
-0.002
 74
     0
  0
ENDTAB
  0
TABLE
  2
LAYER
  5
2
330
0
100
AcDbSymbolTable
 70
     3
  0
LAYER
  5
10
330
2
100
AcDbSymbolTableRecord
100
AcDbLayerTableRecord
  2
0
 70
     0
 62
     7
  6
Continuous
370
    -3
390
F
  0
LAYER
  5
72
330
2
100
AcDbSymbolTableRecord
100
AcDbLayerTableRecord
  2
PROJEKT
 70
     0
 62
     7
  6
AUSGEZOGEN
370
    13
390
F
1001
AcCmTransparency
1071
 33554687
1001
AcAecLayerStandard
1000

1000
EXT0005681, an
  0
LAYER
  5
74
330
2
100
AcDbSymbolTableRecord
100
AcDbLayerTableRecord
  2
STANDARD
 70
     0
 62
     7
  6
AUSGEZOGEN
370
    25
390
F
1001
AcCmTransparency
1071
 33554687
1001
AcAecLayerStandard
1000

1000
STANDARD
  0
ENDTAB
  0
TABLE
  2
STYLE
  5
3
330
0
100
AcDbSymbolTable
 70
     2
  0
STYLE
  5
11
330
3
100
AcDbSymbolTableRecord
100
AcDbTextStyleTableRecord
  2
Standard
 70
     0
 40
0.0
 41
1.0
 50
0.0
 71
     0
 42
0.2
  3
txt
  4

  0
STYLE
  5
6F
330
3
100
AcDbSymbolTableRecord
100
AcDbTextStyleTableRecord
  2
ARIAL
 70
     0
 40
0.0
 41
1.0
 50
0.0
 71
     0
 42
0.2
  3
ARIAL.TTF
  4

1001
ACAD
1000
Arial
1071
       34
  0
ENDTAB
  0
TABLE
  2
VIEW
  5
6
330
0
100
AcDbSymbolTable
 70
     0
  0
ENDTAB
  0
TABLE
  2
UCS
  5
7
330
0
100
AcDbSymbolTable
 70
     0
  0
ENDTAB
  0
TABLE
  2
APPID
  5
9
330
0
100
AcDbSymbolTable
 70
     4
  0
APPID
  5
12
330
9
100
AcDbSymbolTableRecord
100
AcDbRegAppTableRecord
  2
ACAD
 70
     0
  0
APPID
  5
71
330
9
100
AcDbSymbolTableRecord
100
AcDbRegAppTableRecord
  2
AcCmTransparency
 70
     0
  0
APPID
  5
73
330
9
100
AcDbSymbolTableRecord
100
AcDbRegAppTableRecord
  2
AcAecLayerStandard
 70
     0
  0
APPID
  5
33B
330
9
100
AcDbSymbolTableRecord
100
AcDbRegAppTableRecord
  2
ACAD_MLEADERVER
 70
     0
  0
ENDTAB
  0
TABLE
  2
DIMSTYLE
  5
A
330
0
100
AcDbSymbolTable
 70
     1
100
AcDbDimStyleTable
  0
DIMSTYLE
105
27
330
A
100
AcDbSymbolTableRecord
100
AcDbDimStyleTableRecord
  2
Standard
 70
     0
178
     0
340
11
  0
ENDTAB
  0
TABLE
  2
BLOCK_RECORD
  5
1
330
0
100
AcDbSymbolTable
 70
     5
  0
BLOCK_RECORD
  5
1F
330
1
100
AcDbSymbolTableRecord
100
AcDbBlockTableRecord
  2
*Model_Space
340
22
  0
BLOCK_RECORD
  5
1B
330
1
100
AcDbSymbolTableRecord
100
AcDbBlockTableRecord
  2
*Paper_Space
340
1E
  0
BLOCK_RECORD
  5
23
330
1
100
AcDbSymbolTableRecord
100
AcDbBlockTableRecord
  2
*Paper_Space0
340
26
  0
BLOCK_RECORD
  5
75
330
1
100
AcDbSymbolTableRecord
100
AcDbBlockTableRecord
  2
TB_2951
340
0
102
{BLKREFS
331
2F9
102
}
1001
ACAD
1000
DesignCenter Data
1002
{
1070
     1
1070
     6
1002
}
  0
BLOCK_RECORD
  5
85
330
1
100
AcDbSymbolTableRecord
100
AcDbBlockTableRecord
  2
TB_2972
340
0
102
{BLKREFS
331
2F8
102
}
1001
ACAD
1000
DesignCenter Data
1002
{
1070
     1
1070
     6
1002
}
  0
BLOCK_RECORD
  5
90
330
1
100
AcDbSymbolTableRecord
100
AcDbBlockTableRecord
  2
TB_2999
340
0
102
{BLKREFS
331
2FA
102
}
1001
ACAD
1000
DesignCenter Data
1002
{
1070
     1
1070
     6
1002
}
  0
BLOCK_RECORD
  5
2F2
330
1
100
AcDbSymbolTableRecord
100
AcDbBlockTableRecord
  2
TB_7000
340
0
102
{BLKREFS
331
2FB
102
}
1001
ACAD
1000
DesignCenter Data
1002
{
1070
     1
1070
     6
1002
}
  0
ENDTAB
  0
ENDSEC
  0
SECTION
  2
BLOCKS
  0
BLOCK
  5
20
330
1F
100
AcDbEntity
  8
0
100
AcDbBlockBegin
  2
*Model_Space
 70
     0
 10
0.0
 20
0.0
 30
0.0
  3
*Model_Space
  1

  0
ENDBLK
  5
21
330
1F
100
AcDbEntity
  8
0
100
AcDbBlockEnd
  0
BLOCK
  5
1C
330
1B
100
AcDbEntity
 67
     1
  8
0
100
AcDbBlockBegin
  2
*Paper_Space
 70
     0
 10
0.0
 20
0.0
 30
0.0
  3
*Paper_Space
  1

  0
ENDBLK
  5
1D
330
1B
100
AcDbEntity
 67
     1
  8
0
100
AcDbBlockEnd
  0
BLOCK
  5
24
330
23
100
AcDbEntity
  8
0
100
AcDbBlockBegin
  2
*Paper_Space0
 70
     0
 10
0.0
 20
0.0
 30
0.0
  3
*Paper_Space0
  1

  0
ENDBLK
  5
25
330
23
100
AcDbEntity
  8
0
100
AcDbBlockEnd
  0
BLOCK
  5
76
330
75
100
AcDbEntity
  8
0
100
AcDbBlockBegin
  2
TB_2951
 70
     0
 10
0.0
 20
0.0
 30
0.0
  3
TB_2951
  1

  0
LINE
  5
78
330
75
100
AcDbEntity
  8
STANDARD
  6
AUSGEZOGEN
 62
     7
440
 33554687
370
    25
100
AcDbLine
 10
-0.0050980224609375
 20
-0.0050580444335937
 30
0.0
 11
-0.0050980224609375
 21
0.2919419555664062
 31
0.0
  0
LINE
  5
79
330
75
100
AcDbEntity
  8
STANDARD
  6
AUSGEZOGEN
 62
     7
440
 33554687
370
    25
100
AcDbLine
 10
0.2049019775390625
 20
-0.0050580444335937
 30
0.0
 11
-0.0050980224609375
 21
-0.0050580444335937
 31
0.0
  0
LINE
  5
7A
330
75
100
AcDbEntity
  8
STANDARD
  6
AUSGEZOGEN
 62
     7
440
 33554687
370
    25
100
AcDbLine
 10
-0.0050980224609375
 20
0.2919419555664062
 30
0.0
 11
0.2049019775390625
 21
0.2919419555664062
 31
0.0
  0
LINE
  5
7B
330
75
100
AcDbEntity
  8
STANDARD
  6
AUSGEZOGEN
 62
     7
440
 33554687
370
    25
100
AcDbLine
 10
0.2049019775390625
 20
-0.0050580444335937
 30
0.0
 11
0.2049019775390625
 21
0.2919419555664062
 31
0.0
  0
MTEXT
  5
7C
330
75
100
AcDbEntity
  8
STANDARD
  6
AUSGEZOGEN
 62
     7
440
 33554687
370
    25
100
AcDbMText
 10
0.02013330078125
 20
0.2591166381835938
 30
0.0
 40
0.0025
 41
0.0037839279895732
 71
     7
 72
     5
  1
\W0.99;D
  7
ARIAL
 73
     1
 44
1.0
  0
MTEXT
  5
7D
330
75
100
AcDbEntity
  8
STANDARD
  6
AUSGEZOGEN
 62
     7
440
 33554687
370
    25
100
AcDbMText
 10
0.02013330078125
 20
0.2541166381835938
 30
0.0
 40
0.0025
 41
0.006706237616217
 71
     7
 72
     5
  1
\W1.00;D 9
  7
ARIAL
 73
     1
 44
1.0
  0
MTEXT
  5
7E
330
75
100
AcDbEntity
  8
STANDARD
  6
AUSGEZOGEN
 62
     7
440
 33554687
370
    25
100
AcDbMText
 10
0.0201337890625
 20
0.2822459716796875
 30
0.0
 40
0.0025
 41
0.0254339266549464
 71
     7
 72
     5
  1
\W0.94;Baudepartement
  7
ARIAL
 73
     1
 44
1.0
  0
MTEXT
  5
7F
330
75
100
AcDbEntity
  8
STANDARD
  6
AUSGEZOGEN
 62
     7
440
 33554687
370
    25
100
AcDbMText
 10
0.0201337890625
 20
0.27565380859375
 30
0.0
 40
0.004
 41
0.029482635450324
 71
     7
 72
     5
  1
\W0.98;Tiefbauamt
  7
ARIAL
 73
     1
 44
1.0
  0
MTEXT
  5
80
330
75
100
AcDbEntity
  8
STANDARD
  6
AUSGEZOGEN
 62
     7
440
 33554687
370
    13
100
AcDbMText
 10
0.0201337890625
 20
0.27044189453125
 30
0.0
 40
0.002
 41
0.0361502979939861
 71
     7
 72
     5
  1
\W0.97;R17.04 Normalien Standards
  7
ARIAL
 73
     1
 44
1.0
  0
MTEXT
  5
81
330
75
100
AcDbEntity
  8
STANDARD
  6
AUSGEZOGEN
 62
     7
440
 33554687
370
    25
100
AcDbMText
 10
0.160474365234375
 20
0.0030323486328125
 30
0.0
 40
0.0025
 41
0.0356942625073671
 71
     7
 72
     5
  1
\W1.01;www.sz.ch/tiefbauamt
  7
ARIAL
 73
     1
 44
1.0
  0
MTEXT
  5
82
330
75
100
AcDbEntity
  8
STANDARD
  6
AUSGEZOGEN
 62
     7
440
 33554687
370
    25
100
AcDbMText
 10
0.0417681274414063
 20
0.2591166381835938
 30
0.0
 40
0.0025
 41
0.0301009053754189
 71
     7
 72
     5
  1
\W1.02;Projektgrundlagen
  7
ARIAL
 73
     1
 44
1.0
  0
MTEXT
  5
83
330
75
100
AcDbEntity
  8
STANDARD
  6
AUSGEZOGEN
 62
     7
440
 33554687
370
    25
100
AcDbMText
 10
0.0417681274414063
 20
0.2541166381835938
 30
0.0
 40
0.0025
 41
0.0275334400990482
 71
     7
 72
     5
  1
\W1.02;Randabschlüsse
  7
ARIAL
 73
     1
 44
1.0
  0
MTEXT
  5
84
330
75
100
AcDbEntity
  8
STANDARD
  6
AUSGEZOGEN
 62
     7
440
 33554687
370
    25
100
AcDbMText
 10
0.0201657104492187
 20
0.0030320434570312
 30
0.0
 40
0.0025
 41
0.0388686283545537
 71
     7
 72
     5
  1
\W0.99;Version 1.0: 01.12.2015
  7
ARIAL
 73
     1
 44
1.0
  0
ENDBLK
  5
77
330
75
100
AcDbEntity
  8
0
100
AcDbBlockEnd
  0
BLOCK
  5
86
330
85
100
AcDbEntity
  8
0
100
AcDbBlockBegin
  2
TB_2972
 70
     0
 10
0.0
 20
0.0
 30
0.0
  3
TB_2972
  1

  0
MTEXT
  5
88
330
85
100
AcDbEntity
  8
STANDARD
  6
AUSGEZOGEN
 62
     7
440
 33554687
370
    25
100
AcDbMText
 10
0.0419552612304687
 20
0.0334085693359375
 30
0.0
 40
0.0025
 41
0.0767566577896139
 71
     7
 72
     5
  1
\W1.01;- Beton reinigen und auftragen eines Haftklebers
  7
ARIAL
 73
     1
 44
1.0
  0
MTEXT
  5
89
330
85
100
AcDbEntity
  8
STANDARD
  6
AUSGEZOGEN
 62
     7
440
 33554687
370
    25
100
AcDbMText
 10
0.0419552612304687
 20
0.0486585693359375
 30
0.0
 40
0.0025
 41
0.0240890159847485
 71
     7
 72
     5
  1
\A1;{\L\fArial|i0|b0;\H0.002500;\W1.000000;\C7;Bemerkungen:\l}\P
  7
ARIAL
 73
     1
 44
1.0
  0
MTEXT
  5
8A
330
85
100
AcDbEntity
  8
STANDARD
  6
AUSGEZOGEN
 62
     7
440
 33554687
370
    25
100
AcDbMText
 10
0.0419552612304687
 20
0.0436585693359375
 30
0.0
 40
0.0025
 41
0.0592152913323213
 71
     7
 72
     5
  1
\W1.01;- Spezialkleber gemäss Steinlieferant
  7
ARIAL
 73
     1
 44
1.0
  0
MTEXT
  5
8B
330
85
100
AcDbEntity
  8
STANDARD
  6
AUSGEZOGEN
 62
     7
440
 33554687
370
    25
100
AcDbMText
 10
0.0419552612304687
 20
0.038491943359375
 30
0.0
 40
0.0025
 41
0.0863771696919773
 71
     7
 72
     5
  1
\W1.00;- Querfugen (1cm) mit frost-tausalzbeständigem Mörtel
  7
ARIAL
 73
     1
 44
1.0
  0
MTEXT
  5
8C
330
85
100
AcDbEntity
  8
STANDARD
  6
AUSGEZOGEN
 62
     7
440
 33554687
370
    25
100
AcDbMText
 10
0.0199880981445313
 20
0.2462451782226563
 30
0.0
 40
0.004
 41
0.0185364025522979
 71
     7
 72
     5
  1
\A1;{\fArial|i0|b1;\H0.004000;\W1.000000;\C7;D 9.58}\P
  7
ARIAL
 73
     1
 44
1.0
  0
MTEXT
  5
8D
330
85
100
AcDbEntity
  8
STANDARD
  6
AUSGEZOGEN
 62
     7
440
 33554687
370
    25
100
AcDbMText
 10
0.0419552612304687
 20
0.2462451782226563
 30
0.0
 40
0.004
 41
0.1050651644437081
 71
     7
 72
     5
  1
\A1;{\fArial|i0|b1;\H0.004000;\W1.000000;\C7;Stellstein 10/12.5 mit Anschlag geklebt}\P
  7
ARIAL
 73
     1
 44
1.0
  0
MTEXT
  5
8E
330
85
100
AcDbEntity
  8
STANDARD
  6
AUSGEZOGEN
 62
     7
440
 33554687
370
    25
100
AcDbMText
 10
0.0419552612304687
 20
0.2313284912109375
 30
0.0
 40
0.004
 41
0.0879335853185458
 71
     7
 72
     5
  1
\A1;{\fArial|i0|b1;\H0.004000;\W1.000000;\C7;Verlegeprofil mit Steintyp D 9.15}\P
  7
ARIAL
 73
     1
 44
1.0
  0
MTEXT
  5
8F
330
85
100
AcDbEntity
  8
STANDARD
  6
AUSGEZOGEN
 62
     7
440
 33554687
370
    25
100
AcDbMText
 10
0.0419381103515625
 20
0.2263284912109375
 30
0.0
 40
0.0025
 41
0.0450396480478769
 71
     7
 72
     5
  1
\W1.00;Massstab 1:5 (Masse in cm)
  7
ARIAL
 73
     1
 44
1.0
  0
ENDBLK
  5
87
330
85
100
AcDbEntity
  8
0
100
AcDbBlockEnd
  0
BLOCK
  5
91
330
90
100
AcDbEntity
  8
0
100
AcDbBlockBegin
  2
TB_2999
 70
     0
 10
0.0
 20
0.0
 30
0.0
  3
TB_2999
  1

  0
HATCH
  5
93
330
90
100
AcDbEntity
  8
STANDARD
  6
AUSGEZOGEN
 62
   254
440
 33554687
370
    25
100
AcDbHatch
 10
0.0
 20
0.0
 30
0.0
210
0.0
220
0.0
230
1.0
  2
SOLID
 70
     1
 71
     0
 91
        1
 92
        3
 72
     0
 73
     1
 93
       10
 10
0.1177738037109375
 20
0.1439463500976562
 10
0.1173119506835937
 20
0.139943603515625
 10
0.1173119506835937
 20
0.1315518188476563
 10
0.1173488159179688
 20
0.1293018188476563
 10
0.1231107788085938
 20
0.129591064453125
 10
0.1317744140625
 20
0.1288776245117187
 10
0.1373119506835938
 20
0.1293455810546875
 10
0.1373119506835938
 20
0.1543018188476563
 10
0.1173119506835937
 20
0.1543018188476563
 10
0.1173119506835937
 20
0.1503018188476563
 97
        0
 75
     0
 76
     1
 98
        0
  0
HATCH
  5
94
330
90
100
AcDbEntity
  8
STANDARD
  6
AUSGEZOGEN
 62
   255
440
 33554687
370
    25
100
AcDbHatch
 10
0.0
 20
0.0
 30
0.0
210
0.0
220
0.0
230
1.0
  2
SOLID
 70
     1
 71
     0
 91
        1
 92
        3
 72
     0
 73
     1
 93
        4
 10
0.1934616088867188
 20
0.1271788940429688
 10
0.1934616088867188
 20
0.1331787719726563
 10
0.1383119506835938
 20
0.1342818603515625
 10
0.1383119506835938
 20
0.1282817993164063
 97
        0
 75
     0
 76
     1
 98
        0
  0
ARC
  5
95
330
90
100
AcDbEntity
  8
STANDARD
  6
AUSGEZOGEN
 62
     7
440
 33554687
370
    25
100
AcDbCircle
 10
0.0393787231445313
 20
0.138556640625
 30
0.0
 40
0.0029200000870228
100
AcDbArc
 50
0.0
 51
32.99796519817999
  0
ARC
  5
96
330
90
100
AcDbEntity
  8
STANDARD
  6
AUSGEZOGEN
 62
     7
440
 33554687
370
    25
100
AcDbCircle
 10
0.0393787231445313
 20
0.138556640625
 30
0.0
 40
0.0029200000870228
100
AcDbArc
 50
327.0020348018207
 51
0.0
  0
CIRCLE
  5
97
330
90
100
AcDbEntity
  8
STANDARD
  6
AUSGEZOGEN
 62
     7
440
 33554687
370
    25
100
AcDbCircle
 10
0.0593787231445312
 20
0.138556640625
 30
0.0
 40
0.0029200000870228
  0
CIRCLE
  5
98
330
90
100
AcDbEntity
  8
STANDARD
  6
AUSGEZOGEN
 62
     7
440
 33554687
370
    25
100
AcDbCircle
 10
0.0793787231445312
 20
0.138556640625
 30
0.0
 40
0.0029200000870228
  0
CIRCLE
  5
99
330
90
100
AcDbEntity
  8
STANDARD
  6
AUSGEZOGEN
 62
     7
440
 33554687
370
    25
100
AcDbCircle
 10
0.0993787231445313
 20
0.138556640625
 30
0.0
 40
0.0029200000870228
  0
ARC
  5
9A
330
90
100
AcDbEntity
  8
STANDARD
  6
AUSGEZOGEN
 62
     7
440
 33554687
370
    25
100
AcDbCircle
 10
0.1193787231445313
 20
0.138556640625
 30
0.0
 40
0.0029200000870228
100
AcDbArc
 50
132.670694187057
 51
221.8969450746147
  0
CIRCLE
  5
9B
330
90
100
AcDbEntity
  8
STANDARD
  6
AUSGEZOGEN
 62
     7
440
 33554687
370
    25
100
AcDbCircle
 10
0.04369873046875
 20
0.1426965942382813
 30
0.0
 40
0.0011600000345707
  0
CIRCLE
  5
9C
330
90
100
AcDbEntity
  8
STANDARD
  6
AUSGEZOGEN
 62
     7
440
 33554687
370
    25
100
AcDbCircle
 10
0.06369873046875
 20
0.1426965942382813
 30
0.0
 40
0.0011600000345707
  0
CIRCLE
  5
9D
330
90
100
AcDbEntity
  8
STANDARD
  6
AUSGEZOGEN
 62
     7
440
 33554687
370
    25
100
AcDbCircle
 10
0.08369873046875
 20
0.1426965942382813
 30
0.0
 40
0.0011600000345707
  0
CIRCLE
  5
9E
330
90
100
AcDbEntity
  8
STANDARD
  6
AUSGEZOGEN
 62
     7
440
 33554687
370
    25
100
AcDbCircle
 10
0.10369873046875
 20
0.1426965942382813
 30
0.0
 40
0.0011600000345707
  0
CIRCLE
  5
9F
330
90
100
AcDbEntity
  8
STANDARD
  6
AUSGEZOGEN
 62
     7
440
 33554687
370
    25
100
AcDbCircle
 10
0.04715869140625
 20
0.1401566162109375
 30
0.0
 40
0.0003800000113249
  0
CIRCLE
  5
A0
330
90
100
AcDbEntity
  8
STANDARD
  6
AUSGEZOGEN
 62
     7
440
 33554687
370
    25
100
AcDbCircle
 10
0.0671587524414062
 20
0.1401566162109375
 30
0.0
 40
0.0003800000113249
  0
CIRCLE
  5
A1
330
90
100
AcDbEntity
  8
STANDARD
  6
AUSGEZOGEN
 62
     7
440
 33554687
370
    25
100
AcDbCircle
 10
0.0871587524414063
 20
0.1401566162109375
 30
0.0
 40
0.0003800000113249
  0
CIRCLE
  5
A2
330
90
100
AcDbEntity
  8
STANDARD
  6
AUSGEZOGEN
 62
     7
440
 33554687
370
    25
100
AcDbCircle
 10
0.1071587524414063
 20
0.1401566162109375
 30
0.0
 40
0.0003800000113249
  0
ARC
  5
A3
330
90
100
AcDbEntity
  8
STANDARD
  6
AUSGEZOGEN
 62
     7
440
 33554687
370
    25
100
AcDbCircle
 10
0.0448587646484375
 20
0.1285966186523438
 30
0.0
 40
0.0037200001108646
100
AcDbArc
 50
7.805068682594564
 51
144.5678781793994
  0
ARC
  5
A4
330
90
100
AcDbEntity
  8
STANDARD
  6
AUSGEZOGEN
 62
     7
440
 33554687
370
    25
100
AcDbCircle
 10
0.0648587646484375
 20
0.1285966186523438
 30
0.0
 40
0.0037200001108646
100
AcDbArc
 50
7.805068682595427
 51
172.1949313174046
  0
ARC
  5
A5
330
90
100
AcDbEntity
  8
STANDARD
  6
AUSGEZOGEN
 62
     7
440
 33554687
370
    25
100
AcDbCircle
 10
0.0848587646484375
 20
0.1285966186523438
 30
0.0
 40
0.0037200001108646
100
AcDbArc
 50
7.805068682594581
 51
172.1949313174054
  0
ARC
  5
A6
330
90
100
AcDbEntity
  8
STANDARD
  6
AUSGEZOGEN
 62
     7
440
 33554687
370
    25
100
AcDbCircle
 10
0.1048587646484375
 20
0.1285966186523438
 30
0.0
 40
0.0037200001108646
100
AcDbArc
 50
4.317957593443883
 51
173.3907264697284
  0
ARC
  5
A7
330
90
100
AcDbEntity
  8
STANDARD
  6
AUSGEZOGEN
 62
     7
440
 33554687
370
    25
100
AcDbCircle
 10
0.0448587646484375
 20
0.1485966186523437
 30
0.0
 40
0.0037200001108646
100
AcDbArc
 50
0.0
 51
27.28308118776064
  0
ARC
  5
A8
330
90
100
AcDbEntity
  8
STANDARD
  6
AUSGEZOGEN
 62
     7
440
 33554687
370
    25
100
AcDbCircle
 10
0.0448587646484375
 20
0.1485966186523437
 30
0.0
 40
0.0037200001108646
100
AcDbArc
 50
215.4321218206222
 51
0.0
  0
ARC
  5
A9
330
90
100
AcDbEntity
  8
STANDARD
  6
AUSGEZOGEN
 62
     7
440
 33554687
370
    25
100
AcDbCircle
 10
0.0648587646484375
 20
0.1485966186523437
 30
0.0
 40
0.0037200001108646
100
AcDbArc
 50
0.0
 51
27.28308118776346
  0
ARC
  5
AA
330
90
100
AcDbEntity
  8
STANDARD
  6
AUSGEZOGEN
 62
     7
440
 33554687
370
    25
100
AcDbCircle
 10
0.0648587646484375
 20
0.1485966186523437
 30
0.0
 40
0.0037200001108646
100
AcDbArc
 50
152.7169188122365
 51
0.0
  0
ARC
  5
AB
330
90
100
AcDbEntity
  8
STANDARD
  6
AUSGEZOGEN
 62
     7
440
 33554687
370
    25
100
AcDbCircle
 10
0.0848587646484375
 20
0.1485966186523437
 30
0.0
 40
0.0037200001108646
100
AcDbArc
 50
0.0
 51
26.74280495183486
  0
ARC
  5
AC
330
90
100
AcDbEntity
  8
STANDARD
  6
AUSGEZOGEN
 62
     7
440
 33554687
370
    25
100
AcDbCircle
 10
0.0848587646484375
 20
0.1485966186523437
 30
0.0
 40
0.0037200001108646
100
AcDbArc
 50
152.7169188122442
 51
0.0
  0
ARC
  5
AD
330
90
100
AcDbEntity
  8
STANDARD
  6
AUSGEZOGEN
 62
     7
440
 33554687
370
    25
100
AcDbCircle
 10
0.1048587646484375
 20
0.1485966186523437
 30
0.0
 40
0.0037200001108646
100
AcDbArc
 50
0.0
 51
27.283081187767
  0
ARC
  5
AE
330
90
100
AcDbEntity
  8
STANDARD
  6
AUSGEZOGEN
 62
     7
440
 33554687
370
    25
100
AcDbCircle
 10
0.1048587646484375
 20
0.1485966186523437
 30
0.0
 40
0.0037200001108646
100
AcDbArc
 50
152.7664640224797
 51
0.0
  0
CIRCLE
  5
AF
330
90
100
AcDbEntity
  8
STANDARD
  6
AUSGEZOGEN
 62
     7
440
 33554687
370
    25
100
AcDbCircle
 10
0.0510987548828125
 20
0.1407166137695313
 30
0.0
 40
0.0014800000441074
  0
CIRCLE
  5
B0
330
90
100
AcDbEntity
  8
STANDARD
  6
AUSGEZOGEN
 62
     7
440
 33554687
370
    25
100
AcDbCircle
 10
0.0710987548828125
 20
0.1407166137695313
 30
0.0
 40
0.0014800000441074
  0
CIRCLE
  5
B1
330
90
100
AcDbEntity
  8
STANDARD
  6
AUSGEZOGEN
 62
     7
440
 33554687
370
    25
100
AcDbCircle
 10
0.0910987548828125
 20
0.1407166137695313
 30
0.0
 40
0.0014800000441074
  0
CIRCLE
  5
B2
330
90
100
AcDbEntity
  8
STANDARD
  6
AUSGEZOGEN
 62
     7
440
 33554687
370
    25
100
AcDbCircle
 10
0.1110987548828125
 20
0.1407166137695313
 30
0.0
 40
0.0014800000441074
  0
CIRCLE
  5
B3
330
90
100
AcDbEntity
  8
STANDARD
  6
AUSGEZOGEN
 62
     7
440
 33554687
370
    25
100
AcDbCircle
 10
0.04421875
 20
0.1362366333007813
 30
0.0
 40
0.0005800000172853
  0
CIRCLE
  5
B4
330
90
100
AcDbEntity
  8
STANDARD
  6
AUSGEZOGEN
 62
     7
440
 33554687
370
    25
100
AcDbCircle
 10
0.06421875
 20
0.1362366333007813
 30
0.0
 40
0.0005800000172853
  0
CIRCLE
  5
B5
330
90
100
AcDbEntity
  8
STANDARD
  6
AUSGEZOGEN
 62
     7
440
 33554687
370
    25
100
AcDbCircle
 10
0.08421875
 20
0.1362366333007813
 30
0.0
 40
0.0005800000172853
  0
CIRCLE
  5
B6
330
90
100
AcDbEntity
  8
STANDARD
  6
AUSGEZOGEN
 62
     7
440
 33554687
370
    25
100
AcDbCircle
 10
0.10421875
 20
0.1362366333007813
 30
0.0
 40
0.0005800000172853
  0
CIRCLE
  5
B7
330
90
100
AcDbEntity
  8
STANDARD
  6
AUSGEZOGEN
 62
     7
440
 33554687
370
    25
100
AcDbCircle
 10
0.0516387939453125
 20
0.1454566040039063
 30
0.0
 40
0.0029200000870228
  0
CIRCLE
  5
B8
330
90
100
AcDbEntity
  8
STANDARD
  6
AUSGEZOGEN
 62
     7
440
 33554687
370
    25
100
AcDbCircle
 10
0.0716387939453125
 20
0.1454566040039063
 30
0.0
 40
0.0029200000870228
  0
CIRCLE
  5
B9
330
90
100
AcDbEntity
  8
STANDARD
  6
AUSGEZOGEN
 62
     7
440
 33554687
370
    25
100
AcDbCircle
 10
0.0916387939453125
 20
0.1454566040039063
 30
0.0
 40
0.0029200000870228
  0
CIRCLE
  5
BA
330
90
100
AcDbEntity
  8
STANDARD
  6
AUSGEZOGEN
 62
     7
440
 33554687
370
    25
100
AcDbCircle
 10
0.1116387939453125
 20
0.1454566040039063
 30
0.0
 40
0.0029200000870228
  0
ARC
  5
BB
330
90
100
AcDbEntity
  8
STANDARD
  6
AUSGEZOGEN
 62
     7
440
 33554687
370
    25
100
AcDbCircle
 10
0.038978759765625
 20
0.1321966552734375
 30
0.0
 40
0.0029200000870228
100
AcDbArc
 50
0.0
 51
12.66630467906485
  0
ARC
  5
BC
330
90
100
AcDbEntity
  8
STANDARD
  6
AUSGEZOGEN
 62
     7
440
 33554687
370
    25
100
AcDbCircle
 10
0.038978759765625
 20
0.1321966552734375
 30
0.0
 40
0.0029200000870228
100
AcDbArc
 50
347.3336953209363
 51
0.0
  0
CIRCLE
  5
BD
330
90
100
AcDbEntity
  8
STANDARD
  6
AUSGEZOGEN
 62
     7
440
 33554687
370
    25
100
AcDbCircle
 10
0.058978759765625
 20
0.1321966552734375
 30
0.0
 40
0.0029200000870228
  0
CIRCLE
  5
BE
330
90
100
AcDbEntity
  8
STANDARD
  6
AUSGEZOGEN
 62
     7
440
 33554687
370
    25
100
AcDbCircle
 10
0.078978759765625
 20
0.1321966552734375
 30
0.0
 40
0.0029200000870228
  0
CIRCLE
  5
BF
330
90
100
AcDbEntity
  8
STANDARD
  6
AUSGEZOGEN
 62
     7
440
 33554687
370
    25
100
AcDbCircle
 10
0.098978759765625
 20
0.1321966552734375
 30
0.0
 40
0.0029200000870228
  0
ARC
  5
C0
330
90
100
AcDbEntity
  8
STANDARD
  6
AUSGEZOGEN
 62
     7
440
 33554687
370
    25
100
AcDbCircle
 10
0.118978759765625
 20
0.1321966552734375
 30
0.0
 40
0.0029200000870228
100
AcDbArc
 50
126.3342718369555
 51
235.8834231359701
  0
ARC
  5
C1
330
90
100
AcDbEntity
  8
STANDARD
  6
AUSGEZOGEN
 62
     7
440
 33554687
370
    25
100
AcDbCircle
 10
0.058978759765625
 20
0.1521966552734375
 30
0.0
 40
0.0029200000870228
100
AcDbArc
 50
220.459965227294
 51
319.540034772706
  0
ARC
  5
C2
330
90
100
AcDbEntity
  8
STANDARD
  6
AUSGEZOGEN
 62
     7
440
 33554687
370
    25
100
AcDbCircle
 10
0.078978759765625
 20
0.1521966552734375
 30
0.0
 40
0.0029200000870228
100
AcDbArc
 50
220.4599652272848
 51
319.5400347727152
  0
ARC
  5
C3
330
90
100
AcDbEntity
  8
STANDARD
  6
AUSGEZOGEN
 62
     7
440
 33554687
370
    25
100
AcDbCircle
 10
0.098978759765625
 20
0.1521966552734375
 30
0.0
 40
0.0029200000870228
100
AcDbArc
 50
220.4599652273087
 51
318.9883160713554
  0
ARC
  5
C4
330
90
100
AcDbEntity
  8
STANDARD
  6
AUSGEZOGEN
 62
     7
440
 33554687
370
    25
100
AcDbCircle
 10
0.118978759765625
 20
0.1521966552734375
 30
0.0
 40
0.0029200000870228
100
AcDbArc
 50
220.4599652273089
 51
236.1058314955175
  0
CIRCLE
  5
C5
330
90
100
AcDbEntity
  8
STANDARD
  6
AUSGEZOGEN
 62
     7
440
 33554687
370
    25
100
AcDbCircle
 10
0.0574187622070313
 20
0.1427166137695313
 30
0.0
 40
0.0011600000345707
  0
CIRCLE
  5
C6
330
90
100
AcDbEntity
  8
STANDARD
  6
AUSGEZOGEN
 62
     7
440
 33554687
370
    25
100
AcDbCircle
 10
0.0774187622070313
 20
0.1427166137695313
 30
0.0
 40
0.0011600000345707
  0
CIRCLE
  5
C7
330
90
100
AcDbEntity
  8
STANDARD
  6
AUSGEZOGEN
 62
     7
440
 33554687
370
    25
100
AcDbCircle
 10
0.0974187622070312
 20
0.1427166137695313
 30
0.0
 40
0.0011600000345707
  0
ARC
  5
C8
330
90
100
AcDbEntity
  8
STANDARD
  6
AUSGEZOGEN
 62
     7
440
 33554687
370
    25
100
AcDbCircle
 10
0.1174187622070312
 20
0.1427166137695313
 30
0.0
 40
0.0011600000345707
100
AcDbArc
 50
72.90052047817343
 51
273.9339874279454
  0
CIRCLE
  5
C9
330
90
100
AcDbEntity
  8
STANDARD
  6
AUSGEZOGEN
 62
     7
440
 33554687
370
    25
100
AcDbCircle
 10
0.053978759765625
 20
0.1415966186523437
 30
0.0
 40
0.0011600000345707
  0
CIRCLE
  5
CA
330
90
100
AcDbEntity
  8
STANDARD
  6
AUSGEZOGEN
 62
     7
440
 33554687
370
    25
100
AcDbCircle
 10
0.073978759765625
 20
0.1415966186523437
 30
0.0
 40
0.0011600000345707
  0
CIRCLE
  5
CB
330
90
100
AcDbEntity
  8
STANDARD
  6
AUSGEZOGEN
 62
     7
440
 33554687
370
    25
100
AcDbCircle
 10
0.093978759765625
 20
0.1415966186523437
 30
0.0
 40
0.0011600000345707
  0
CIRCLE
  5
CC
330
90
100
AcDbEntity
  8
STANDARD
  6
AUSGEZOGEN
 62
     7
440
 33554687
370
    25
100
AcDbCircle
 10
0.113978759765625
 20
0.1415966186523437
 30
0.0
 40
0.0011600000345707
  0
CIRCLE
  5
CD
330
90
100
AcDbEntity
  8
STANDARD
  6
AUSGEZOGEN
 62
     7
440
 33554687
370
    25
100
AcDbCircle
 10
0.047478759765625
 20
0.1340166015625
 30
0.0
 40
0.0011600000345707
  0
CIRCLE
  5
CE
330
90
100
AcDbEntity
  8
STANDARD
  6
AUSGEZOGEN
 62
     7
440
 33554687
370
    25
100
AcDbCircle
 10
0.067478759765625
 20
0.1340166015625
 30
0.0
 40
0.0011600000345707
  0
CIRCLE
  5
CF
330
90
100
AcDbEntity
  8
STANDARD
  6
AUSGEZOGEN
 62
     7
440
 33554687
370
    25
100
AcDbCircle
 10
0.087478759765625
 20
0.1340166015625
 30
0.0
 40
0.0011600000345707
  0
CIRCLE
  5
D0
330
90
100
AcDbEntity
  8
STANDARD
  6
AUSGEZOGEN
 62
     7
440
 33554687
370
    25
100
AcDbCircle
 10
0.107478759765625
 20
0.1340166015625
 30
0.0
 40
0.0011600000345707
  0
CIRCLE
  5
D1
330
90
100
AcDbEntity
  8
STANDARD
  6
AUSGEZOGEN
 62
     7
440
 33554687
370
    25
100
AcDbCircle
 10
0.0542786865234375
 20
0.1338366088867187
 30
0.0
 40
0.0011600000345707
  0
CIRCLE
  5
D2
330
90
100
AcDbEntity
  8
STANDARD
  6
AUSGEZOGEN
 62
     7
440
 33554687
370
    25
100
AcDbCircle
 10
0.0742786865234375
 20
0.1338366088867187
 30
0.0
 40
0.0011600000345707
  0
CIRCLE
  5
D3
330
90
100
AcDbEntity
  8
STANDARD
  6
AUSGEZOGEN
 62
     7
440
 33554687
370
    25
100
AcDbCircle
 10
0.0942787475585938
 20
0.1338366088867187
 30
0.0
 40
0.0011600000345707
  0
CIRCLE
  5
D4
330
90
100
AcDbEntity
  8
STANDARD
  6
AUSGEZOGEN
 62
     7
440
 33554687
370
    25
100
AcDbCircle
 10
0.1142787475585938
 20
0.1338366088867187
 30
0.0
 40
0.0011600000345707
  0
ARC
  5
D5
330
90
100
AcDbEntity
  8
STANDARD
  6
AUSGEZOGEN
 62
     7
440
 33554687
370
    25
100
AcDbCircle
 10
0.0412786865234375
 20
0.1430966186523437
 30
0.0
 40
0.0005800000172853
100
AcDbArc
 50
0.0
 51
18.81389849903404
  0
ARC
  5
D6
330
90
100
AcDbEntity
  8
STANDARD
  6
AUSGEZOGEN
 62
     7
440
 33554687
370
    25
100
AcDbCircle
 10
0.0412786865234375
 20
0.1430966186523437
 30
0.0
 40
0.0005800000172853
100
AcDbArc
 50
341.1861015009685
 51
0.0
  0
CIRCLE
  5
D7
330
90
100
AcDbEntity
  8
STANDARD
  6
AUSGEZOGEN
 62
     7
440
 33554687
370
    25
100
AcDbCircle
 10
0.0612786865234375
 20
0.1430966186523437
 30
0.0
 40
0.0005800000172853
  0
CIRCLE
  5
D8
330
90
100
AcDbEntity
  8
STANDARD
  6
AUSGEZOGEN
 62
     7
440
 33554687
370
    25
100
AcDbCircle
 10
0.0812787475585938
 20
0.1430966186523437
 30
0.0
 40
0.0005800000172853
  0
CIRCLE
  5
D9
330
90
100
AcDbEntity
  8
STANDARD
  6
AUSGEZOGEN
 62
     7
440
 33554687
370
    25
100
AcDbCircle
 10
0.1012787475585938
 20
0.1430966186523437
 30
0.0
 40
0.0005800000172853
  0
ARC
  5
DA
330
90
100
AcDbEntity
  8
STANDARD
  6
AUSGEZOGEN
 62
     7
440
 33554687
370
    25
100
AcDbCircle
 10
0.0601187744140625
 20
0.1286766357421875
 30
0.0
 40
0.0005800000172853
100
AcDbArc
 50
47.14297334828872
 51
132.8570266517137
  0
ARC
  5
DB
330
90
100
AcDbEntity
  8
STANDARD
  6
AUSGEZOGEN
 62
     7
440
 33554687
370
    25
100
AcDbCircle
 10
0.0801187744140625
 20
0.1286766357421875
 30
0.0
 40
0.0005800000172853
100
AcDbArc
 50
47.14297334845363
 51
132.8570266515454
  0
ARC
  5
DC
330
90
100
AcDbEntity
  8
STANDARD
  6
AUSGEZOGEN
 62
     7
440
 33554687
370
    25
100
AcDbCircle
 10
0.1001187744140625
 20
0.1286766357421875
 30
0.0
 40
0.0005800000172853
100
AcDbArc
 50
38.35951592798332
 51
139.3491681351913
  0
CIRCLE
  5
DD
330
90
100
AcDbEntity
  8
STANDARD
  6
AUSGEZOGEN
 62
     7
440
 33554687
370
    25
100
AcDbCircle
 10
0.0601187744140625
 20
0.1486766357421875
 30
0.0
 40
0.0005800000172853
  0
CIRCLE
  5
DE
330
90
100
AcDbEntity
  8
STANDARD
  6
AUSGEZOGEN
 62
     7
440
 33554687
370
    25
100
AcDbCircle
 10
0.0801187744140625
 20
0.1486766357421875
 30
0.0
 40
0.0005800000172853
  0
CIRCLE
  5
DF
330
90
100
AcDbEntity
  8
STANDARD
  6
AUSGEZOGEN
 62
     7
440
 33554687
370
    25
100
AcDbCircle
 10
0.1001187744140625
 20
0.1486766357421875
 30
0.0
 40
0.0005800000172853
  0
CIRCLE
  5
E0
330
90
100
AcDbEntity
  8
STANDARD
  6
AUSGEZOGEN
 62
     7
440
 33554687
370
    25
100
AcDbCircle
 10
0.0428386840820313
 20
0.1328165893554688
 30
0.0
 40
0.0005800000172853
  0
CIRCLE
  5
E1
330
90
100
AcDbEntity
  8
STANDARD
  6
AUSGEZOGEN
 62
     7
440
 33554687
370
    25
100
AcDbCircle
 10
0.0628386840820312
 20
0.1328165893554688
 30
0.0
 40
0.0005800000172853
  0
CIRCLE
  5
E2
330
90
100
AcDbEntity
  8
STANDARD
  6
AUSGEZOGEN
 62
     7
440
 33554687
370
    25
100
AcDbCircle
 10
0.0828386840820313
 20
0.1328165893554688
 30
0.0
 40
0.0005800000172853
  0
CIRCLE
  5
E3
330
90
100
AcDbEntity
  8
STANDARD
  6
AUSGEZOGEN
 62
     7
440
 33554687
370
    25
100
AcDbCircle
 10
0.1028387451171875
 20
0.1328165893554688
 30
0.0
 40
0.0005800000172853
  0
CIRCLE
  5
E4
330
90
100
AcDbEntity
  8
STANDARD
  6
AUSGEZOGEN
 62
     7
440
 33554687
370
    25
100
AcDbCircle
 10
0.0547987670898437
 20
0.1435166625976562
 30
0.0
 40
0.0005800000172853
  0
CIRCLE
  5
E5
330
90
100
AcDbEntity
  8
STANDARD
  6
AUSGEZOGEN
 62
     7
440
 33554687
370
    25
100
AcDbCircle
 10
0.0747987670898437
 20
0.1435166625976562
 30
0.0
 40
0.0005800000172853
  0
CIRCLE
  5
E6
330
90
100
AcDbEntity
  8
STANDARD
  6
AUSGEZOGEN
 62
     7
440
 33554687
370
    25
100
AcDbCircle
 10
0.0947987670898437
 20
0.1435166625976562
 30
0.0
 40
0.0005800000172853
  0
CIRCLE
  5
E7
330
90
100
AcDbEntity
  8
STANDARD
  6
AUSGEZOGEN
 62
     7
440
 33554687
370
    25
100
AcDbCircle
 10
0.1147987670898438
 20
0.1435166625976562
 30
0.0
 40
0.0005800000172853
  0
CIRCLE
  5
E8
330
90
100
AcDbEntity
  8
STANDARD
  6
AUSGEZOGEN
 62
     7
440
 33554687
370
    25
100
AcDbCircle
 10
0.042518798828125
 20
0.1442966918945313
 30
0.0
 40
0.0003800000113249
  0
CIRCLE
  5
E9
330
90
100
AcDbEntity
  8
STANDARD
  6
AUSGEZOGEN
 62
     7
440
 33554687
370
    25
100
AcDbCircle
 10
0.062518798828125
 20
0.1442966918945313
 30
0.0
 40
0.0003800000113249
  0
CIRCLE
  5
EA
330
90
100
AcDbEntity
  8
STANDARD
  6
AUSGEZOGEN
 62
     7
440
 33554687
370
    25
100
AcDbCircle
 10
0.082518798828125
 20
0.1442966918945313
 30
0.0
 40
0.0003800000113249
  0
CIRCLE
  5
EB
330
90
100
AcDbEntity
  8
STANDARD
  6
AUSGEZOGEN
 62
     7
440
 33554687
370
    25
100
AcDbCircle
 10
0.102518798828125
 20
0.1442966918945313
 30
0.0
 40
0.0003800000113249
  0
ARC
  5
EC
330
90
100
AcDbEntity
  8
STANDARD
  6
AUSGEZOGEN
 62
     7
440
 33554687
370
    25
100
AcDbCircle
 10
0.0566387939453125
 20
0.1290565795898438
 30
0.0
 40
0.0003800000113249
100
AcDbArc
 50
6.835463774116548
 51
173.1645362258835
  0
ARC
  5
ED
330
90
100
AcDbEntity
  8
STANDARD
  6
AUSGEZOGEN
 62
     7
440
 33554687
370
    25
100
AcDbCircle
 10
0.0766387939453125
 20
0.1290565795898438
 30
0.0
 40
0.0003800000113249
100
AcDbArc
 50
6.835463774078778
 51
173.1645362259215
  0
ARC
  5
EE
330
90
100
AcDbEntity
  8
STANDARD
  6
AUSGEZOGEN
 62
     7
440
 33554687
370
    25
100
AcDbCircle
 10
0.0966387939453125
 20
0.1290565795898438
 30
0.0
 40
0.0003800000113249
100
AcDbArc
 50
6.835463774078529
 51
173.1645362259212
  0
ARC
  5
EF
330
90
100
AcDbEntity
  8
STANDARD
  6
AUSGEZOGEN
 62
     7
440
 33554687
370
    25
100
AcDbCircle
 10
0.1166387939453125
 20
0.1290565795898438
 30
0.0
 40
0.0003800000113249
100
AcDbArc
 50
0.0
 51
242.7391685547756
  0
ARC
  5
F0
330
90
100
AcDbEntity
  8
STANDARD
  6
AUSGEZOGEN
 62
     7
440
 33554687
370
    25
100
AcDbCircle
 10
0.1166387939453125
 20
0.1290565795898438
 30
0.0
 40
0.0003800000113249
100
AcDbArc
 50
294.9695155084048
 51
0.0
  0
CIRCLE
  5
F1
330
90
100
AcDbEntity
  8
STANDARD
  6
AUSGEZOGEN
 62
     7
440
 33554687
370
    25
100
AcDbCircle
 10
0.0566387939453125
 20
0.1490565795898438
 30
0.0
 40
0.0003800000113249
  0
CIRCLE
  5
F2
330
90
100
AcDbEntity
  8
STANDARD
  6
AUSGEZOGEN
 62
     7
440
 33554687
370
    25
100
AcDbCircle
 10
0.0766387939453125
 20
0.1490565795898438
 30
0.0
 40
0.0003800000113249
  0
CIRCLE
  5
F3
330
90
100
AcDbEntity
  8
STANDARD
  6
AUSGEZOGEN
 62
     7
440
 33554687
370
    25
100
AcDbCircle
 10
0.0966387939453125
 20
0.1490565795898438
 30
0.0
 40
0.0003800000113249
  0
CIRCLE
  5
F4
330
90
100
AcDbEntity
  8
STANDARD
  6
AUSGEZOGEN
 62
     7
440
 33554687
370
    25
100
AcDbCircle
 10
0.1166387939453125
 20
0.1490565795898438
 30
0.0
 40
0.0003800000113249
  0
CIRCLE
  5
F5
330
90
100
AcDbEntity
  8
STANDARD
  6
AUSGEZOGEN
 62
     7
440
 33554687
370
    25
100
AcDbCircle
 10
0.0447186889648438
 20
0.134556640625
 30
0.0
 40
0.0003800000113249
  0
CIRCLE
  5
F6
330
90
100
AcDbEntity
  8
STANDARD
  6
AUSGEZOGEN
 62
     7
440
 33554687
370
    25
100
AcDbCircle
 10
0.0647186889648438
 20
0.134556640625
 30
0.0
 40
0.0003800000113249
  0
CIRCLE
  5
F7
330
90
100
AcDbEntity
  8
STANDARD
  6
AUSGEZOGEN
 62
     7
440
 33554687
370
    25
100
AcDbCircle
 10
0.08471875
 20
0.134556640625
 30
0.0
 40
0.0003800000113249
  0
CIRCLE
  5
F8
330
90
100
AcDbEntity
  8
STANDARD
  6
AUSGEZOGEN
 62
     7
440
 33554687
370
    25
100
AcDbCircle
 10
0.10471875
 20
0.134556640625
 30
0.0
 40
0.0003800000113249
  0
CIRCLE
  5
F9
330
90
100
AcDbEntity
  8
STANDARD
  6
AUSGEZOGEN
 62
     7
440
 33554687
370
    25
100
AcDbCircle
 10
0.042478759765625
 20
0.1342366333007813
 30
0.0
 40
0.0003800000113249
  0
CIRCLE
  5
FA
330
90
100
AcDbEntity
  8
STANDARD
  6
AUSGEZOGEN
 62
     7
440
 33554687
370
    25
100
AcDbCircle
 10
0.062478759765625
 20
0.1342366333007813
 30
0.0
 40
0.0003800000113249
  0
CIRCLE
  5
FB
330
90
100
AcDbEntity
  8
STANDARD
  6
AUSGEZOGEN
 62
     7
440
 33554687
370
    25
100
AcDbCircle
 10
0.082478759765625
 20
0.1342366333007813
 30
0.0
 40
0.0003800000113249
  0
CIRCLE
  5
FC
330
90
100
AcDbEntity
  8
STANDARD
  6
AUSGEZOGEN
 62
     7
440
 33554687
370
    25
100
AcDbCircle
 10
0.102478759765625
 20
0.1342366333007813
 30
0.0
 40
0.0003800000113249
  0
CIRCLE
  5
FD
330
90
100
AcDbEntity
  8
STANDARD
  6
AUSGEZOGEN
 62
     7
440
 33554687
370
    25
100
AcDbCircle
 10
0.0548987426757813
 20
0.1479766235351563
 30
0.0
 40
0.0003800000113249
  0
CIRCLE
  5
FE
330
90
100
AcDbEntity
  8
STANDARD
  6
AUSGEZOGEN
 62
     7
440
 33554687
370
    25
100
AcDbCircle
 10
0.0748987426757813
 20
0.1479766235351563
 30
0.0
 40
0.0003800000113249
  0
CIRCLE
  5
FF
330
90
100
AcDbEntity
  8
STANDARD
  6
AUSGEZOGEN
 62
     7
440
 33554687
370
    25
100
AcDbCircle
 10
0.0948987426757813
 20
0.1479766235351563
 30
0.0
 40
0.0003800000113249
  0
CIRCLE
  5
100
330
90
100
AcDbEntity
  8
STANDARD
  6
AUSGEZOGEN
 62
     7
440
 33554687
370
    25
100
AcDbCircle
 10
0.1148987426757812
 20
0.1479766235351563
 30
0.0
 40
0.0003800000113249
  0
CIRCLE
  5
101
330
90
100
AcDbEntity
  8
STANDARD
  6
AUSGEZOGEN
 62
     7
440
 33554687
370
    25
100
AcDbCircle
 10
0.0527987670898438
 20
0.1309766235351562
 30
0.0
 40
0.0003800000113249
  0
CIRCLE
  5
102
330
90
100
AcDbEntity
  8
STANDARD
  6
AUSGEZOGEN
 62
     7
440
 33554687
370
    25
100
AcDbCircle
 10
0.0727987670898438
 20
0.1309766235351562
 30
0.0
 40
0.0003800000113249
  0
CIRCLE
  5
103
330
90
100
AcDbEntity
  8
STANDARD
  6
AUSGEZOGEN
 62
     7
440
 33554687
370
    25
100
AcDbCircle
 10
0.0927987670898437
 20
0.1309766235351562
 30
0.0
 40
0.0003800000113249
  0
CIRCLE
  5
104
330
90
100
AcDbEntity
  8
STANDARD
  6
AUSGEZOGEN
 62
     7
440
 33554687
370
    25
100
AcDbCircle
 10
0.1127987670898438
 20
0.1309766235351562
 30
0.0
 40
0.0003800000113249
  0
CIRCLE
  5
105
330
90
100
AcDbEntity
  8
STANDARD
  6
AUSGEZOGEN
 62
     7
440
 33554687
370
    25
100
AcDbCircle
 10
0.0549187622070312
 20
0.1361566162109375
 30
0.0
 40
0.0003800000113249
  0
CIRCLE
  5
106
330
90
100
AcDbEntity
  8
STANDARD
  6
AUSGEZOGEN
 62
     7
440
 33554687
370
    25
100
AcDbCircle
 10
0.0749187622070313
 20
0.1361566162109375
 30
0.0
 40
0.0003800000113249
  0
CIRCLE
  5
107
330
90
100
AcDbEntity
  8
STANDARD
  6
AUSGEZOGEN
 62
     7
440
 33554687
370
    25
100
AcDbCircle
 10
0.0949187622070313
 20
0.1361566162109375
 30
0.0
 40
0.0003800000113249
  0
CIRCLE
  5
108
330
90
100
AcDbEntity
  8
STANDARD
  6
AUSGEZOGEN
 62
     7
440
 33554687
370
    25
100
AcDbCircle
 10
0.1149187622070312
 20
0.1361566162109375
 30
0.0
 40
0.0003800000113249
  0
CIRCLE
  5
109
330
90
100
AcDbEntity
  8
STANDARD
  6
AUSGEZOGEN
 62
     7
440
 33554687
370
    25
100
AcDbCircle
 10
0.0566587524414063
 20
0.1361166381835938
 30
0.0
 40
0.0003800000113249
  0
CIRCLE
  5
10A
330
90
100
AcDbEntity
  8
STANDARD
  6
AUSGEZOGEN
 62
     7
440
 33554687
370
    25
100
AcDbCircle
 10
0.0766587524414063
 20
0.1361166381835938
 30
0.0
 40
0.0003800000113249
  0
CIRCLE
  5
10B
330
90
100
AcDbEntity
  8
STANDARD
  6
AUSGEZOGEN
 62
     7
440
 33554687
370
    25
100
AcDbCircle
 10
0.0966587524414062
 20
0.1361166381835938
 30
0.0
 40
0.0003800000113249
  0
CIRCLE
  5
10C
330
90
100
AcDbEntity
  8
STANDARD
  6
AUSGEZOGEN
 62
     7
440
 33554687
370
    25
100
AcDbCircle
 10
0.1166587524414062
 20
0.1361166381835938
 30
0.0
 40
0.0003800000113249
  0
CIRCLE
  5
10D
330
90
100
AcDbEntity
  8
STANDARD
  6
AUSGEZOGEN
 62
     7
440
 33554687
370
    25
100
AcDbCircle
 10
0.0563587646484375
 20
0.1410166015625
 30
0.0
 40
0.0003800000113249
  0
CIRCLE
  5
10E
330
90
100
AcDbEntity
  8
STANDARD
  6
AUSGEZOGEN
 62
     7
440
 33554687
370
    25
100
AcDbCircle
 10
0.0763587646484375
 20
0.1410166015625
 30
0.0
 40
0.0003800000113249
  0
CIRCLE
  5
10F
330
90
100
AcDbEntity
  8
STANDARD
  6
AUSGEZOGEN
 62
     7
440
 33554687
370
    25
100
AcDbCircle
 10
0.0963587646484375
 20
0.1410166015625
 30
0.0
 40
0.0003800000113249
  0
CIRCLE
  5
110
330
90
100
AcDbEntity
  8
STANDARD
  6
AUSGEZOGEN
 62
     7
440
 33554687
370
    25
100
AcDbCircle
 10
0.1163587646484375
 20
0.1410166015625
 30
0.0
 40
0.0003800000113249
  0
CIRCLE
  5
111
330
90
100
AcDbEntity
  8
STANDARD
  6
AUSGEZOGEN
 62
     7
440
 33554687
370
    25
100
AcDbCircle
 10
0.04673876953125
 20
0.1443366088867188
 30
0.0
 40
0.0003800000113249
  0
CIRCLE
  5
112
330
90
100
AcDbEntity
  8
STANDARD
  6
AUSGEZOGEN
 62
     7
440
 33554687
370
    25
100
AcDbCircle
 10
0.06673876953125
 20
0.1443366088867188
 30
0.0
 40
0.0003800000113249
  0
CIRCLE
  5
113
330
90
100
AcDbEntity
  8
STANDARD
  6
AUSGEZOGEN
 62
     7
440
 33554687
370
    25
100
AcDbCircle
 10
0.08673876953125
 20
0.1443366088867188
 30
0.0
 40
0.0003800000113249
  0
CIRCLE
  5
114
330
90
100
AcDbEntity
  8
STANDARD
  6
AUSGEZOGEN
 62
     7
440
 33554687
370
    25
100
AcDbCircle
 10
0.10673876953125
 20
0.1443366088867188
 30
0.0
 40
0.0003800000113249
  0
CIRCLE
  5
115
330
90
100
AcDbEntity
  8
STANDARD
  6
AUSGEZOGEN
 62
     7
440
 33554687
370
    25
100
AcDbCircle
 10
0.047998779296875
 20
0.1453366088867188
 30
0.0
 40
0.0003800000113249
  0
CIRCLE
  5
116
330
90
100
AcDbEntity
  8
STANDARD
  6
AUSGEZOGEN
 62
     7
440
 33554687
370
    25
100
AcDbCircle
 10
0.067998779296875
 20
0.1453366088867188
 30
0.0
 40
0.0003800000113249
  0
CIRCLE
  5
117
330
90
100
AcDbEntity
  8
STANDARD
  6
AUSGEZOGEN
 62
     7
440
 33554687
370
    25
100
AcDbCircle
 10
0.087998779296875
 20
0.1453366088867188
 30
0.0
 40
0.0003800000113249
  0
CIRCLE
  5
118
330
90
100
AcDbEntity
  8
STANDARD
  6
AUSGEZOGEN
 62
     7
440
 33554687
370
    25
100
AcDbCircle
 10
0.107998779296875
 20
0.1453366088867188
 30
0.0
 40
0.0003800000113249
  0
CIRCLE
  5
119
330
90
100
AcDbEntity
  8
STANDARD
  6
AUSGEZOGEN
 62
     7
440
 33554687
370
    25
100
AcDbCircle
 10
0.0493387451171875
 20
0.1483566284179688
 30
0.0
 40
0.0003800000113249
  0
CIRCLE
  5
11A
330
90
100
AcDbEntity
  8
STANDARD
  6
AUSGEZOGEN
 62
     7
440
 33554687
370
    25
100
AcDbCircle
 10
0.0693387451171875
 20
0.1483566284179688
 30
0.0
 40
0.0003800000113249
  0
CIRCLE
  5
11B
330
90
100
AcDbEntity
  8
STANDARD
  6
AUSGEZOGEN
 62
     7
440
 33554687
370
    25
100
AcDbCircle
 10
0.0893387451171875
 20
0.1483566284179688
 30
0.0
 40
0.0003800000113249
  0
CIRCLE
  5
11C
330
90
100
AcDbEntity
  8
STANDARD
  6
AUSGEZOGEN
 62
     7
440
 33554687
370
    25
100
AcDbCircle
 10
0.1093387451171875
 20
0.1483566284179688
 30
0.0
 40
0.0003800000113249
  0
CIRCLE
  5
11D
330
90
100
AcDbEntity
  8
STANDARD
  6
AUSGEZOGEN
 62
     7
440
 33554687
370
    25
100
AcDbCircle
 10
0.0516387939453125
 20
0.1372966918945313
 30
0.0
 40
0.0014800000441074
  0
CIRCLE
  5
11E
330
90
100
AcDbEntity
  8
STANDARD
  6
AUSGEZOGEN
 62
     7
440
 33554687
370
    25
100
AcDbCircle
 10
0.0716387939453125
 20
0.1372966918945313
 30
0.0
 40
0.0014800000441074
  0
CIRCLE
  5
11F
330
90
100
AcDbEntity
  8
STANDARD
  6
AUSGEZOGEN
 62
     7
440
 33554687
370
    25
100
AcDbCircle
 10
0.0916387939453125
 20
0.1372966918945313
 30
0.0
 40
0.0014800000441074
  0
CIRCLE
  5
120
330
90
100
AcDbEntity
  8
STANDARD
  6
AUSGEZOGEN
 62
     7
440
 33554687
370
    25
100
AcDbCircle
 10
0.1116387939453125
 20
0.1372966918945313
 30
0.0
 40
0.0014800000441074
  0
CIRCLE
  5
121
330
90
100
AcDbEntity
  8
STANDARD
  6
AUSGEZOGEN
 62
     7
440
 33554687
370
    25
100
AcDbCircle
 10
0.0467987670898437
 20
0.137556640625
 30
0.0
 40
0.0014800000441074
  0
CIRCLE
  5
122
330
90
100
AcDbEntity
  8
STANDARD
  6
AUSGEZOGEN
 62
     7
440
 33554687
370
    25
100
AcDbCircle
 10
0.0667987670898438
 20
0.137556640625
 30
0.0
 40
0.0014800000441074
  0
CIRCLE
  5
123
330
90
100
AcDbEntity
  8
STANDARD
  6
AUSGEZOGEN
 62
     7
440
 33554687
370
    25
100
AcDbCircle
 10
0.0867987670898438
 20
0.137556640625
 30
0.0
 40
0.0014800000441074
  0
CIRCLE
  5
124
330
90
100
AcDbEntity
  8
STANDARD
  6
AUSGEZOGEN
 62
     7
440
 33554687
370
    25
100
AcDbCircle
 10
0.1067987670898437
 20
0.137556640625
 30
0.0
 40
0.0014800000441074
  0
CIRCLE
  5
125
330
90
100
AcDbEntity
  8
STANDARD
  6
AUSGEZOGEN
 62
     7
440
 33554687
370
    25
100
AcDbCircle
 10
0.0440787963867188
 20
0.1397566528320313
 30
0.0
 40
0.0014800000441074
  0
CIRCLE
  5
126
330
90
100
AcDbEntity
  8
STANDARD
  6
AUSGEZOGEN
 62
     7
440
 33554687
370
    25
100
AcDbCircle
 10
0.0640787963867187
 20
0.1397566528320313
 30
0.0
 40
0.0014800000441074
  0
CIRCLE
  5
127
330
90
100
AcDbEntity
  8
STANDARD
  6
AUSGEZOGEN
 62
     7
440
 33554687
370
    25
100
AcDbCircle
 10
0.0840787963867188
 20
0.1397566528320313
 30
0.0
 40
0.0014800000441074
  0
CIRCLE
  5
128
330
90
100
AcDbEntity
  8
STANDARD
  6
AUSGEZOGEN
 62
     7
440
 33554687
370
    25
100
AcDbCircle
 10
0.1040787963867188
 20
0.1397566528320313
 30
0.0
 40
0.0014800000441074
  0
CIRCLE
  5
129
330
90
100
AcDbEntity
  8
STANDARD
  6
AUSGEZOGEN
 62
     7
440
 33554687
370
    25
100
AcDbCircle
 10
0.0502587280273437
 20
0.1318566284179687
 30
0.0
 40
0.0014800000441074
  0
CIRCLE
  5
12A
330
90
100
AcDbEntity
  8
STANDARD
  6
AUSGEZOGEN
 62
     7
440
 33554687
370
    25
100
AcDbCircle
 10
0.0702587280273437
 20
0.1318566284179687
 30
0.0
 40
0.0014800000441074
  0
CIRCLE
  5
12B
330
90
100
AcDbEntity
  8
STANDARD
  6
AUSGEZOGEN
 62
     7
440
 33554687
370
    25
100
AcDbCircle
 10
0.0902587280273437
 20
0.1318566284179687
 30
0.0
 40
0.0014800000441074
  0
CIRCLE
  5
12C
330
90
100
AcDbEntity
  8
STANDARD
  6
AUSGEZOGEN
 62
     7
440
 33554687
370
    25
100
AcDbCircle
 10
0.1102587280273438
 20
0.1318566284179687
 30
0.0
 40
0.0014800000441074
  0
CIRCLE
  5
12D
330
90
100
AcDbEntity
  8
STANDARD
  6
AUSGEZOGEN
 62
     7
440
 33554687
370
    25
100
AcDbCircle
 10
0.0582786865234375
 20
0.1462966918945313
 30
0.0
 40
0.0014800000441074
  0
CIRCLE
  5
12E
330
90
100
AcDbEntity
  8
STANDARD
  6
AUSGEZOGEN
 62
     7
440
 33554687
370
    25
100
AcDbCircle
 10
0.0782786865234375
 20
0.1462966918945313
 30
0.0
 40
0.0014800000441074
  0
CIRCLE
  5
12F
330
90
100
AcDbEntity
  8
STANDARD
  6
AUSGEZOGEN
 62
     7
440
 33554687
370
    25
100
AcDbCircle
 10
0.0982787475585938
 20
0.1462966918945313
 30
0.0
 40
0.0014800000441074
  0
ARC
  5
130
330
90
100
AcDbEntity
  8
STANDARD
  6
AUSGEZOGEN
 62
     7
440
 33554687
370
    25
100
AcDbCircle
 10
0.1182787475585938
 20
0.1462966918945313
 30
0.0
 40
0.0014800000441074
100
AcDbArc
 50
121.2459456176753
 51
247.0668304696392
  0
CIRCLE
  5
131
330
90
100
AcDbEntity
  8
STANDARD
  6
AUSGEZOGEN
 62
     7
440
 33554687
370
    25
100
AcDbCircle
 10
0.0479187622070312
 20
0.1424366455078125
 30
0.0
 40
0.0014800000441074
  0
CIRCLE
  5
132
330
90
100
AcDbEntity
  8
STANDARD
  6
AUSGEZOGEN
 62
     7
440
 33554687
370
    25
100
AcDbCircle
 10
0.0679187622070312
 20
0.1424366455078125
 30
0.0
 40
0.0014800000441074
  0
CIRCLE
  5
133
330
90
100
AcDbEntity
  8
STANDARD
  6
AUSGEZOGEN
 62
     7
440
 33554687
370
    25
100
AcDbCircle
 10
0.0879187622070313
 20
0.1424366455078125
 30
0.0
 40
0.0014800000441074
  0
CIRCLE
  5
134
330
90
100
AcDbEntity
  8
STANDARD
  6
AUSGEZOGEN
 62
     7
440
 33554687
370
    25
100
AcDbCircle
 10
0.1079187622070313
 20
0.1424366455078125
 30
0.0
 40
0.0014800000441074
  0
CIRCLE
  5
135
330
90
100
AcDbEntity
  8
STANDARD
  6
AUSGEZOGEN
 62
     7
440
 33554687
370
    25
100
AcDbCircle
 10
0.060518798828125
 20
0.1463765869140625
 30
0.0
 40
0.0005800000172853
  0
CIRCLE
  5
136
330
90
100
AcDbEntity
  8
STANDARD
  6
AUSGEZOGEN
 62
     7
440
 33554687
370
    25
100
AcDbCircle
 10
0.080518798828125
 20
0.1463765869140625
 30
0.0
 40
0.0005800000172853
  0
CIRCLE
  5
137
330
90
100
AcDbEntity
  8
STANDARD
  6
AUSGEZOGEN
 62
     7
440
 33554687
370
    25
100
AcDbCircle
 10
0.100518798828125
 20
0.1463765869140625
 30
0.0
 40
0.0005800000172853
  0
CIRCLE
  5
138
330
90
100
AcDbEntity
  8
STANDARD
  6
AUSGEZOGEN
 62
     7
440
 33554687
370
    25
100
AcDbCircle
 10
0.05973876953125
 20
0.1425966186523437
 30
0.0
 40
0.0005800000172853
  0
CIRCLE
  5
139
330
90
100
AcDbEntity
  8
STANDARD
  6
AUSGEZOGEN
 62
     7
440
 33554687
370
    25
100
AcDbCircle
 10
0.07973876953125
 20
0.1425966186523437
 30
0.0
 40
0.0005800000172853
  0
CIRCLE
  5
13A
330
90
100
AcDbEntity
  8
STANDARD
  6
AUSGEZOGEN
 62
     7
440
 33554687
370
    25
100
AcDbCircle
 10
0.09973876953125
 20
0.1425966186523437
 30
0.0
 40
0.0005800000172853
  0
ARC
  5
13B
330
90
100
AcDbEntity
  8
STANDARD
  6
AUSGEZOGEN
 62
     7
440
 33554687
370
    25
100
AcDbCircle
 10
0.0420187377929688
 20
0.1415166625976562
 30
0.0
 40
0.0005800000172853
100
AcDbArc
 50
0.0
 51
109.2311099868065
  0
ARC
  5
13C
330
90
100
AcDbEntity
  8
STANDARD
  6
AUSGEZOGEN
 62
     7
440
 33554687
370
    25
100
AcDbCircle
 10
0.0420187377929688
 20
0.1415166625976562
 30
0.0
 40
0.0005800000172853
100
AcDbArc
 50
250.7688900131942
 51
0.0
  0
CIRCLE
  5
13D
330
90
100
AcDbEntity
  8
STANDARD
  6
AUSGEZOGEN
 62
     7
440
 33554687
370
    25
100
AcDbCircle
 10
0.0620187377929688
 20
0.1415166625976562
 30
0.0
 40
0.0005800000172853
  0
CIRCLE
  5
13E
330
90
100
AcDbEntity
  8
STANDARD
  6
AUSGEZOGEN
 62
     7
440
 33554687
370
    25
100
AcDbCircle
 10
0.0820187377929688
 20
0.1415166625976562
 30
0.0
 40
0.0005800000172853
  0
CIRCLE
  5
13F
330
90
100
AcDbEntity
  8
STANDARD
  6
AUSGEZOGEN
 62
     7
440
 33554687
370
    25
100
AcDbCircle
 10
0.1020187377929688
 20
0.1415166625976562
 30
0.0
 40
0.0005800000172853
  0
CIRCLE
  5
140
330
90
100
AcDbEntity
  8
STANDARD
  6
AUSGEZOGEN
 62
     7
440
 33554687
370
    25
100
AcDbCircle
 10
0.05969873046875
 20
0.1443366088867188
 30
0.0
 40
0.0005800000172853
  0
CIRCLE
  5
141
330
90
100
AcDbEntity
  8
STANDARD
  6
AUSGEZOGEN
 62
     7
440
 33554687
370
    25
100
AcDbCircle
 10
0.07969873046875
 20
0.1443366088867188
 30
0.0
 40
0.0005800000172853
  0
CIRCLE
  5
142
330
90
100
AcDbEntity
  8
STANDARD
  6
AUSGEZOGEN
 62
     7
440
 33554687
370
    25
100
AcDbCircle
 10
0.09969873046875
 20
0.1443366088867188
 30
0.0
 40
0.0005800000172853
  0
CIRCLE
  5
143
330
90
100
AcDbEntity
  8
STANDARD
  6
AUSGEZOGEN
 62
     7
440
 33554687
370
    25
100
AcDbCircle
 10
0.0452987670898438
 20
0.1437166137695313
 30
0.0
 40
0.0005800000172853
  0
CIRCLE
  5
144
330
90
100
AcDbEntity
  8
STANDARD
  6
AUSGEZOGEN
 62
     7
440
 33554687
370
    25
100
AcDbCircle
 10
0.0652987670898438
 20
0.1437166137695313
 30
0.0
 40
0.0005800000172853
  0
CIRCLE
  5
145
330
90
100
AcDbEntity
  8
STANDARD
  6
AUSGEZOGEN
 62
     7
440
 33554687
370
    25
100
AcDbCircle
 10
0.0852987670898438
 20
0.1437166137695313
 30
0.0
 40
0.0005800000172853
  0
CIRCLE
  5
146
330
90
100
AcDbEntity
  8
STANDARD
  6
AUSGEZOGEN
 62
     7
440
 33554687
370
    25
100
AcDbCircle
 10
0.1052987670898438
 20
0.1437166137695313
 30
0.0
 40
0.0005800000172853
  0
ARC
  5
147
330
90
100
AcDbEntity
  8
STANDARD
  6
AUSGEZOGEN
 62
     7
440
 33554687
370
    25
100
AcDbCircle
 10
0.0506587524414063
 20
0.1292166137695313
 30
0.0
 40
0.0005800000172853
100
AcDbArc
 50
0.0
 51
191.4167156768705
  0
ARC
  5
148
330
90
100
AcDbEntity
  8
STANDARD
  6
AUSGEZOGEN
 62
     7
440
 33554687
370
    25
100
AcDbCircle
 10
0.0506587524414063
 20
0.1292166137695313
 30
0.0
 40
0.0005800000172853
100
AcDbArc
 50
348.5832843231295
 51
0.0
  0
ARC
  5
149
330
90
100
AcDbEntity
  8
STANDARD
  6
AUSGEZOGEN
 62
     7
440
 33554687
370
    25
100
AcDbCircle
 10
0.0706587524414063
 20
0.1292166137695313
 30
0.0
 40
0.0005800000172853
100
AcDbArc
 50
0.0
 51
191.4167156768706
  0
ARC
  5
14A
330
90
100
AcDbEntity
  8
STANDARD
  6
AUSGEZOGEN
 62
     7
440
 33554687
370
    25
100
AcDbCircle
 10
0.0706587524414063
 20
0.1292166137695313
 30
0.0
 40
0.0005800000172853
100
AcDbArc
 50
348.5832843231296
 51
0.0
  0
ARC
  5
14B
330
90
100
AcDbEntity
  8
STANDARD
  6
AUSGEZOGEN
 62
     7
440
 33554687
370
    25
100
AcDbCircle
 10
0.0906587524414063
 20
0.1292166137695313
 30
0.0
 40
0.0005800000172853
100
AcDbArc
 50
0.0
 51
191.416715676901
  0
ARC
  5
14C
330
90
100
AcDbEntity
  8
STANDARD
  6
AUSGEZOGEN
 62
     7
440
 33554687
370
    25
100
AcDbCircle
 10
0.0906587524414063
 20
0.1292166137695313
 30
0.0
 40
0.0005800000172853
100
AcDbArc
 50
348.5832843230987
 51
0.0
  0
ARC
  5
14D
330
90
100
AcDbEntity
  8
STANDARD
  6
AUSGEZOGEN
 62
     7
440
 33554687
370
    25
100
AcDbCircle
 10
0.1106587524414063
 20
0.1292166137695313
 30
0.0
 40
0.0005800000172853
100
AcDbArc
 50
0.0
 51
220.0021770190622
  0
ARC
  5
14E
330
90
100
AcDbEntity
  8
STANDARD
  6
AUSGEZOGEN
 62
     7
440
 33554687
370
    25
100
AcDbCircle
 10
0.1106587524414063
 20
0.1292166137695313
 30
0.0
 40
0.0005800000172853
100
AcDbArc
 50
317.7065070441144
 51
0.0
  0
CIRCLE
  5
14F
330
90
100
AcDbEntity
  8
STANDARD
  6
AUSGEZOGEN
 62
     7
440
 33554687
370
    25
100
AcDbCircle
 10
0.0506587524414063
 20
0.1492166137695312
 30
0.0
 40
0.0005800000172853
  0
CIRCLE
  5
150
330
90
100
AcDbEntity
  8
STANDARD
  6
AUSGEZOGEN
 62
     7
440
 33554687
370
    25
100
AcDbCircle
 10
0.0706587524414063
 20
0.1492166137695312
 30
0.0
 40
0.0005800000172853
  0
CIRCLE
  5
151
330
90
100
AcDbEntity
  8
STANDARD
  6
AUSGEZOGEN
 62
     7
440
 33554687
370
    25
100
AcDbCircle
 10
0.0906587524414063
 20
0.1492166137695312
 30
0.0
 40
0.0005800000172853
  0
CIRCLE
  5
152
330
90
100
AcDbEntity
  8
STANDARD
  6
AUSGEZOGEN
 62
     7
440
 33554687
370
    25
100
AcDbCircle
 10
0.1106587524414063
 20
0.1492166137695312
 30
0.0
 40
0.0005800000172853
  0
CIRCLE
  5
153
330
90
100
AcDbEntity
  8
STANDARD
  6
AUSGEZOGEN
 62
     7
440
 33554687
370
    25
100
AcDbCircle
 10
0.0515587768554688
 20
0.134316650390625
 30
0.0
 40
0.0005800000172853
  0
CIRCLE
  5
154
330
90
100
AcDbEntity
  8
STANDARD
  6
AUSGEZOGEN
 62
     7
440
 33554687
370
    25
100
AcDbCircle
 10
0.0715587768554688
 20
0.134316650390625
 30
0.0
 40
0.0005800000172853
  0
CIRCLE
  5
155
330
90
100
AcDbEntity
  8
STANDARD
  6
AUSGEZOGEN
 62
     7
440
 33554687
370
    25
100
AcDbCircle
 10
0.0915587768554687
 20
0.134316650390625
 30
0.0
 40
0.0005800000172853
  0
CIRCLE
  5
156
330
90
100
AcDbEntity
  8
STANDARD
  6
AUSGEZOGEN
 62
     7
440
 33554687
370
    25
100
AcDbCircle
 10
0.1115587768554687
 20
0.134316650390625
 30
0.0
 40
0.0005800000172853
  0
ARC
  5
157
330
90
100
AcDbEntity
  8
STANDARD
  6
AUSGEZOGEN
 62
     7
440
 33554687
370
    25
100
AcDbCircle
 10
0.0538587646484375
 20
0.1293566284179687
 30
0.0
 40
0.0005800000172853
100
AcDbArc
 50
0.0
 51
206.0622806489291
  0
ARC
  5
158
330
90
100
AcDbEntity
  8
STANDARD
  6
AUSGEZOGEN
 62
     7
440
 33554687
370
    25
100
AcDbCircle
 10
0.0538587646484375
 20
0.1293566284179687
 30
0.0
 40
0.0005800000172853
100
AcDbArc
 50
333.9377193510709
 51
0.0
  0
ARC
  5
159
330
90
100
AcDbEntity
  8
STANDARD
  6
AUSGEZOGEN
 62
     7
440
 33554687
370
    25
100
AcDbCircle
 10
0.0738587646484375
 20
0.1293566284179687
 30
0.0
 40
0.0005800000172853
100
AcDbArc
 50
0.0
 51
206.0622806489291
  0
ARC
  5
15A
330
90
100
AcDbEntity
  8
STANDARD
  6
AUSGEZOGEN
 62
     7
440
 33554687
370
    25
100
AcDbCircle
 10
0.0738587646484375
 20
0.1293566284179687
 30
0.0
 40
0.0005800000172853
100
AcDbArc
 50
333.9377193510709
 51
0.0
  0
ARC
  5
15B
330
90
100
AcDbEntity
  8
STANDARD
  6
AUSGEZOGEN
 62
     7
440
 33554687
370
    25
100
AcDbCircle
 10
0.0938587646484375
 20
0.1293566284179687
 30
0.0
 40
0.0005800000172853
100
AcDbArc
 50
0.0
 51
206.0622806488924
  0
ARC
  5
15C
330
90
100
AcDbEntity
  8
STANDARD
  6
AUSGEZOGEN
 62
     7
440
 33554687
370
    25
100
AcDbCircle
 10
0.0938587646484375
 20
0.1293566284179687
 30
0.0
 40
0.0005800000172853
100
AcDbArc
 50
333.9377193511082
 51
0.0
  0
CIRCLE
  5
15D
330
90
100
AcDbEntity
  8
STANDARD
  6
AUSGEZOGEN
 62
     7
440
 33554687
370
    25
100
AcDbCircle
 10
0.1138587646484375
 20
0.1293566284179687
 30
0.0
 40
0.0005800000172853
  0
CIRCLE
  5
15E
330
90
100
AcDbEntity
  8
STANDARD
  6
AUSGEZOGEN
 62
     7
440
 33554687
370
    25
100
AcDbCircle
 10
0.0538587646484375
 20
0.1493566284179688
 30
0.0
 40
0.0005800000172853
  0
CIRCLE
  5
15F
330
90
100
AcDbEntity
  8
STANDARD
  6
AUSGEZOGEN
 62
     7
440
 33554687
370
    25
100
AcDbCircle
 10
0.0738587646484375
 20
0.1493566284179688
 30
0.0
 40
0.0005800000172853
  0
CIRCLE
  5
160
330
90
100
AcDbEntity
  8
STANDARD
  6
AUSGEZOGEN
 62
     7
440
 33554687
370
    25
100
AcDbCircle
 10
0.0938587646484375
 20
0.1493566284179688
 30
0.0
 40
0.0005800000172853
  0
CIRCLE
  5
161
330
90
100
AcDbEntity
  8
STANDARD
  6
AUSGEZOGEN
 62
     7
440
 33554687
370
    25
100
AcDbCircle
 10
0.1138587646484375
 20
0.1493566284179688
 30
0.0
 40
0.0005800000172853
  0
CIRCLE
  5
162
330
90
100
AcDbEntity
  8
STANDARD
  6
AUSGEZOGEN
 62
     7
440
 33554687
370
    25
100
AcDbCircle
 10
0.054458740234375
 20
0.131316650390625
 30
0.0
 40
0.0005800000172853
  0
CIRCLE
  5
163
330
90
100
AcDbEntity
  8
STANDARD
  6
AUSGEZOGEN
 62
     7
440
 33554687
370
    25
100
AcDbCircle
 10
0.074458740234375
 20
0.131316650390625
 30
0.0
 40
0.0005800000172853
  0
CIRCLE
  5
164
330
90
100
AcDbEntity
  8
STANDARD
  6
AUSGEZOGEN
 62
     7
440
 33554687
370
    25
100
AcDbCircle
 10
0.094458740234375
 20
0.131316650390625
 30
0.0
 40
0.0005800000172853
  0
CIRCLE
  5
165
330
90
100
AcDbEntity
  8
STANDARD
  6
AUSGEZOGEN
 62
     7
440
 33554687
370
    25
100
AcDbCircle
 10
0.114458740234375
 20
0.131316650390625
 30
0.0
 40
0.0005800000172853
  0
CIRCLE
  5
166
330
90
100
AcDbEntity
  8
STANDARD
  6
AUSGEZOGEN
 62
     7
440
 33554687
370
    25
100
AcDbCircle
 10
0.0541987915039063
 20
0.1386766357421875
 30
0.0
 40
0.0005800000172853
  0
CIRCLE
  5
167
330
90
100
AcDbEntity
  8
STANDARD
  6
AUSGEZOGEN
 62
     7
440
 33554687
370
    25
100
AcDbCircle
 10
0.0741987915039063
 20
0.1386766357421875
 30
0.0
 40
0.0005800000172853
  0
CIRCLE
  5
168
330
90
100
AcDbEntity
  8
STANDARD
  6
AUSGEZOGEN
 62
     7
440
 33554687
370
    25
100
AcDbCircle
 10
0.0941987915039063
 20
0.1386766357421875
 30
0.0
 40
0.0005800000172853
  0
CIRCLE
  5
169
330
90
100
AcDbEntity
  8
STANDARD
  6
AUSGEZOGEN
 62
     7
440
 33554687
370
    25
100
AcDbCircle
 10
0.1141987915039063
 20
0.1386766357421875
 30
0.0
 40
0.0005800000172853
  0
CIRCLE
  5
16A
330
90
100
AcDbEntity
  8
STANDARD
  6
AUSGEZOGEN
 62
     7
440
 33554687
370
    25
100
AcDbCircle
 10
0.0564387817382812
 20
0.1446165771484375
 30
0.0
 40
0.0005800000172853
  0
CIRCLE
  5
16B
330
90
100
AcDbEntity
  8
STANDARD
  6
AUSGEZOGEN
 62
     7
440
 33554687
370
    25
100
AcDbCircle
 10
0.0764387817382813
 20
0.1446165771484375
 30
0.0
 40
0.0005800000172853
  0
CIRCLE
  5
16C
330
90
100
AcDbEntity
  8
STANDARD
  6
AUSGEZOGEN
 62
     7
440
 33554687
370
    25
100
AcDbCircle
 10
0.0964387817382813
 20
0.1446165771484375
 30
0.0
 40
0.0005800000172853
  0
CIRCLE
  5
16D
330
90
100
AcDbEntity
  8
STANDARD
  6
AUSGEZOGEN
 62
     7
440
 33554687
370
    25
100
AcDbCircle
 10
0.1164387817382812
 20
0.1446165771484375
 30
0.0
 40
0.0005800000172853
  0
ARC
  5
16E
330
90
100
AcDbEntity
  8
STANDARD
  6
AUSGEZOGEN
 62
     7
440
 33554687
370
    25
100
AcDbCircle
 10
0.0980587158203125
 20
0.1285166625976563
 30
0.0
 40
0.0005800000172853
100
AcDbArc
 50
78.2509062657162
 51
99.45777779745895
  0
CIRCLE
  5
16F
330
90
100
AcDbEntity
  8
STANDARD
  6
AUSGEZOGEN
 62
     7
440
 33554687
370
    25
100
AcDbCircle
 10
0.0580587158203125
 20
0.1485166625976563
 30
0.0
 40
0.0005800000172853
  0
CIRCLE
  5
170
330
90
100
AcDbEntity
  8
STANDARD
  6
AUSGEZOGEN
 62
     7
440
 33554687
370
    25
100
AcDbCircle
 10
0.0780587158203125
 20
0.1485166625976563
 30
0.0
 40
0.0005800000172853
  0
CIRCLE
  5
171
330
90
100
AcDbEntity
  8
STANDARD
  6
AUSGEZOGEN
 62
     7
440
 33554687
370
    25
100
AcDbCircle
 10
0.0980587158203125
 20
0.1485166625976563
 30
0.0
 40
0.0005800000172853
  0
CIRCLE
  5
172
330
90
100
AcDbEntity
  8
STANDARD
  6
AUSGEZOGEN
 62
     7
440
 33554687
370
    25
100
AcDbCircle
 10
0.0564987182617188
 20
0.147776611328125
 30
0.0
 40
0.0005800000172853
  0
CIRCLE
  5
173
330
90
100
AcDbEntity
  8
STANDARD
  6
AUSGEZOGEN
 62
     7
440
 33554687
370
    25
100
AcDbCircle
 10
0.0764987182617188
 20
0.147776611328125
 30
0.0
 40
0.0005800000172853
  0
CIRCLE
  5
174
330
90
100
AcDbEntity
  8
STANDARD
  6
AUSGEZOGEN
 62
     7
440
 33554687
370
    25
100
AcDbCircle
 10
0.0964987182617188
 20
0.147776611328125
 30
0.0
 40
0.0005800000172853
  0
CIRCLE
  5
175
330
90
100
AcDbEntity
  8
STANDARD
  6
AUSGEZOGEN
 62
     7
440
 33554687
370
    25
100
AcDbCircle
 10
0.1164987182617188
 20
0.147776611328125
 30
0.0
 40
0.0005800000172853
  0
LINE
  5
176
330
90
100
AcDbEntity
  8
STANDARD
  6
AUSGEZOGEN
 62
     7
440
 33554687
370
    35
100
AcDbLine
 10
0.0792369539764935
 20
0.1154633848148079
 30
0.0
 11
0.0928754260757199
 21
0.129101806640625
 31
0.0
  0
LINE
  5
177
330
90
100
AcDbEntity
  8
STANDARD
  6
AUSGEZOGEN
 62
     7
440
 33554687
370
    35
100
AcDbLine
 10
0.0903288364385527
 20
0.1152415473914704
 30
0.0
 11
0.1040543048481088
 21
0.1289669652069361
 31
0.0
  0
LINE
  5
178
330
90
100
AcDbEntity
  8
STANDARD
  6
AUSGEZOGEN
 62
     7
440
 33554687
370
    35
100
AcDbLine
 10
0.1014207111006936
 20
0.1150197101241311
 30
0.0
 11
0.1151461387986365
 21
0.1287451378220741
 31
0.0
  0
LINE
  5
179
330
90
100
AcDbEntity
  8
STANDARD
  6
AUSGEZOGEN
 62
     7
440
 33554687
370
    35
100
AcDbLine
 10
0.1125125943644473
 20
0.1147978726847598
 30
0.0
 11
0.1262380309528741
 21
0.1285233092731866
 31
0.0
  0
LINE
  5
17A
330
90
100
AcDbEntity
  8
STANDARD
  6
AUSGEZOGEN
 62
     7
440
 33554687
370
    35
100
AcDbLine
 10
0.123604423986345
 20
0.1145760363182244
 30
0.0
 11
0.1373299190673992
 21
0.1283014808050899
 31
0.0
  0
LINE
  5
17B
330
90
100
AcDbEntity
  8
STANDARD
  6
AUSGEZOGEN
 62
     7
440
 33554687
370
    35
100
AcDbLine
 10
0.1346963064484042
 20
0.1143541988948869
 30
0.0
 11
0.1484218104199738
 21
0.128079652272235
 31
0.0
  0
LINE
  5
17C
330
90
100
AcDbEntity
  8
STANDARD
  6
AUSGEZOGEN
 62
     7
440
 33554687
370
    35
100
AcDbLine
 10
0.1457881843173185
 20
0.1141323615634122
 30
0.0
 11
0.1595136475771489
 21
0.1278578248232427
 31
0.0
  0
LINE
  5
17D
330
90
100
AcDbEntity
  8
STANDARD
  6
AUSGEZOGEN
 62
     7
440
 33554687
370
    35
100
AcDbLine
 10
0.1568800675810721
 20
0.1139105241240409
 30
0.0
 11
0.1706055397313865
 21
0.1276359962743552
 31
0.0
  0
LINE
  5
17E
330
90
100
AcDbEntity
  8
STANDARD
  6
AUSGEZOGEN
 62
     7
440
 33554687
370
    35
100
AcDbLine
 10
0.1679718939961964
 20
0.1136886878216409
 30
0.0
 11
0.1816974246392641
 21
0.1274141678703888
 31
0.0
  0
LINE
  5
17F
330
90
100
AcDbEntity
  8
STANDARD
  6
AUSGEZOGEN
 62
     7
440
 33554687
370
    35
100
AcDbLine
 10
0.1790637764582556
 20
0.1134668503983034
 30
0.0
 11
0.1927893159918387
 21
0.1271923393375339
 31
0.0
  0
LINE
  5
180
330
90
100
AcDbEntity
  8
STANDARD
  6
AUSGEZOGEN
 62
     7
440
 33554687
370
    35
100
AcDbLine
 10
0.1901556575339434
 20
0.1132450130026934
 30
0.0
 11
0.1934616088867188
 21
0.1165509643554688
 31
0.0
  0
LINE
  5
181
330
90
100
AcDbEntity
  8
STANDARD
  6
AUSGEZOGEN
 62
     7
440
 33554687
370
    35
100
AcDbLine
 10
0.0736910134885748
 20
0.1155743035116144
 30
0.0
 11
0.0872185646402455
 21
0.129101806640625
 31
0.0
  0
LINE
  5
182
330
90
100
AcDbEntity
  8
STANDARD
  6
AUSGEZOGEN
 62
     7
440
 33554687
370
    35
100
AcDbLine
 10
0.0847828862050632
 20
0.1153524662831882
 30
0.0
 11
0.0985083005672803
 21
0.1290778806454053
 31
0.0
  0
LINE
  5
183
330
90
100
AcDbEntity
  8
STANDARD
  6
AUSGEZOGEN
 62
     7
440
 33554687
370
    35
100
AcDbLine
 10
0.0958747694688168
 20
0.1151306288438168
 30
0.0
 11
0.1096001927215178
 21
0.1288560520965178
 31
0.0
  0
LINE
  5
184
330
90
100
AcDbEntity
  8
STANDARD
  6
AUSGEZOGEN
 62
     7
440
 33554687
370
    35
100
AcDbLine
 10
0.1069666527325704
 20
0.1149087914044454
 30
0.0
 11
0.1206920848757553
 21
0.1286342235476303
 31
0.0
  0
LINE
  5
185
330
90
100
AcDbEntity
  8
STANDARD
  6
AUSGEZOGEN
 62
     7
440
 33554687
370
    35
100
AcDbLine
 10
0.1180584836168773
 20
0.1146869550126619
 30
0.0
 11
0.1317839724204811
 21
0.1284123950909292
 31
0.0
  0
LINE
  5
186
330
90
100
AcDbEntity
  8
STANDARD
  6
AUSGEZOGEN
 62
     7
440
 33554687
370
    35
100
AcDbLine
 10
0.1291504657247588
 20
0.11446511559641
 30
0.0
 11
0.1428758201089125
 21
0.1281905674313205
 31
0.0
  0
LINE
  5
187
330
90
100
AcDbEntity
  8
STANDARD
  6
AUSGEZOGEN
 62
     7
440
 33554687
370
    35
100
AcDbLine
 10
0.140242296609055
 20
0.1142432792046267
 30
0.0
 11
0.1539677076536412
 21
0.1279687389746194
 31
0.0
  0
LINE
  5
188
330
90
100
AcDbEntity
  8
STANDARD
  6
AUSGEZOGEN
 62
     7
440
 33554687
370
    35
100
AcDbLine
 10
0.1513341806448904
 20
0.1140214417498138
 30
0.0
 11
0.1650596005799301
 21
0.1277469104102915
 31
0.0
  0
LINE
  5
189
330
90
100
AcDbEntity
  8
STANDARD
  6
AUSGEZOGEN
 62
     7
440
 33554687
370
    35
100
AcDbLine
 10
0.1624260690513386
 20
0.1137996042075886
 30
0.0
 11
0.1761515456469428
 21
0.1275250808031928
 31
0.0
  0
LINE
  5
18A
330
90
100
AcDbEntity
  8
STANDARD
  6
AUSGEZOGEN
 62
     7
440
 33554687
370
    35
100
AcDbLine
 10
0.1735179523150922
 20
0.1135777667682172
 30
0.0
 11
0.1872434378011803
 21
0.1273032522543053
 31
0.0
  0
LINE
  5
18B
330
90
100
AcDbEntity
  8
STANDARD
  6
AUSGEZOGEN
 62
     7
440
 33554687
370
    35
100
AcDbLine
 10
0.1846097757404562
 20
0.1133559305256124
 30
0.0
 11
0.1934616088867188
 21
0.122207763671875
 31
0.0
  0
LINE
  5
18C
330
90
100
AcDbEntity
  8
STANDARD
  6
AUSGEZOGEN
 62
     7
440
 33554687
370
    25
100
AcDbLine
 10
0.0496387939453125
 20
0.098055303926974
 30
0.0
 11
0.0496387939453125
 21
0.1018246459960938
 31
0.0
  0
LINE
  5
18D
330
90
100
AcDbEntity
  8
STANDARD
  6
AUSGEZOGEN
 62
     7
440
 33554687
370
    25
100
AcDbLine
 10
0.0586387939453125
 20
0.0978753068314742
 30
0.0
 11
0.0586387939453125
 21
0.1108246459960937
 31
0.0
  0
LINE
  5
18E
330
90
100
AcDbEntity
  8
STANDARD
  6
AUSGEZOGEN
 62
     7
440
 33554687
370
    25
100
AcDbLine
 10
0.0676387939453125
 20
0.0976953097359745
 30
0.0
 11
0.0676387939453125
 21
0.1156953396979342
 31
0.0
  0
LINE
  5
18F
330
90
100
AcDbEntity
  8
STANDARD
  6
AUSGEZOGEN
 62
     7
440
 33554687
370
    25
100
AcDbLine
 10
0.0766387939453125
 20
0.0975153126404748
 30
0.0
 11
0.0766387939453125
 21
0.1155153404592808
 31
0.0
  0
LINE
  5
190
330
90
100
AcDbEntity
  8
STANDARD
  6
AUSGEZOGEN
 62
     7
440
 33554687
370
    25
100
AcDbLine
 10
0.0856387939453125
 20
0.0973353155449751
 30
0.0
 11
0.0856387939453125
 21
0.1153353412206273
 31
0.0
  0
LINE
  5
191
330
90
100
AcDbEntity
  8
STANDARD
  6
AUSGEZOGEN
 62
     7
440
 33554687
370
    25
100
AcDbLine
 10
0.0946387939453125
 20
0.0971553184494754
 30
0.0
 11
0.0946387939453125
 21
0.1151553419819738
 31
0.0
  0
LINE
  5
192
330
90
100
AcDbEntity
  8
STANDARD
  6
AUSGEZOGEN
 62
     7
440
 33554687
370
    25
100
AcDbLine
 10
0.1036387939453125
 20
0.0969753213539756
 30
0.0
 11
0.1036387939453125
 21
0.1149753427433204
 31
0.0
  0
LINE
  5
193
330
90
100
AcDbEntity
  8
STANDARD
  6
AUSGEZOGEN
 62
     7
440
 33554687
370
    25
100
AcDbLine
 10
0.1126387939453125
 20
0.0967953242584759
 30
0.0
 11
0.1126387939453125
 21
0.1147953435046669
 31
0.0
  0
LINE
  5
194
330
90
100
AcDbEntity
  8
STANDARD
  6
AUSGEZOGEN
 62
     7
440
 33554687
370
    25
100
AcDbLine
 10
0.1216387939453125
 20
0.0966153271629762
 30
0.0
 11
0.1216387939453125
 21
0.1146153442660134
 31
0.0
  0
LINE
  5
195
330
90
100
AcDbEntity
  8
STANDARD
  6
AUSGEZOGEN
 62
     7
440
 33554687
370
    25
100
AcDbLine
 10
0.1306387939453125
 20
0.0964353300674765
 30
0.0
 11
0.1306387939453125
 21
0.11443534502736
 31
0.0
  0
LINE
  5
196
330
90
100
AcDbEntity
  8
STANDARD
  6
AUSGEZOGEN
 62
     7
440
 33554687
370
    25
100
AcDbLine
 10
0.1396387939453125
 20
0.0962553329719768
 30
0.0
 11
0.1396387939453125
 21
0.1142553457887065
 31
0.0
  0
LINE
  5
197
330
90
100
AcDbEntity
  8
STANDARD
  6
AUSGEZOGEN
 62
     7
440
 33554687
370
    25
100
AcDbLine
 10
0.1486387939453125
 20
0.096075335876477
 30
0.0
 11
0.1486387939453125
 21
0.114075346550053
 31
0.0
  0
LINE
  5
198
330
90
100
AcDbEntity
  8
STANDARD
  6
AUSGEZOGEN
 62
     7
440
 33554687
370
    25
100
AcDbLine
 10
0.1576387939453125
 20
0.0958953387809773
 30
0.0
 11
0.1576387939453125
 21
0.1138953473113996
 31
0.0
  0
LINE
  5
199
330
90
100
AcDbEntity
  8
STANDARD
  6
AUSGEZOGEN
 62
     7
440
 33554687
370
    25
100
AcDbLine
 10
0.1666387939453125
 20
0.0957153416854776
 30
0.0
 11
0.1666387939453125
 21
0.1137153480727461
 31
0.0
  0
LINE
  5
19A
330
90
100
AcDbEntity
  8
STANDARD
  6
AUSGEZOGEN
 62
     7
440
 33554687
370
    25
100
AcDbLine
 10
0.1756387939453125
 20
0.0955353445899779
 30
0.0
 11
0.1756387939453125
 21
0.1135353488340926
 31
0.0
  0
LINE
  5
19B
330
90
100
AcDbEntity
  8
STANDARD
  6
AUSGEZOGEN
 62
     7
440
 33554687
370
    25
100
AcDbLine
 10
0.1846387939453125
 20
0.0953553474944782
 30
0.0
 11
0.1846387939453125
 21
0.1133553495954392
 31
0.0
  0
LINE
  5
19C
330
90
100
AcDbEntity
  8
STANDARD
  6
AUSGEZOGEN
 62
     7
440
 33554687
370
    25
100
AcDbLine
 10
0.0541387329101563
 20
0.0979653065999076
 30
0.0
 11
0.0541387329101563
 21
0.1063245849609375
 31
0.0
  0
LINE
  5
19D
330
90
100
AcDbEntity
  8
STANDARD
  6
AUSGEZOGEN
 62
     7
440
 33554687
370
    25
100
AcDbLine
 10
0.0631387329101562
 20
0.0977853095044078
 30
0.0
 11
0.0631387329101562
 21
0.1153245849609375
 31
0.0
  0
LINE
  5
19E
330
90
100
AcDbEntity
  8
STANDARD
  6
AUSGEZOGEN
 62
     7
440
 33554687
370
    25
100
AcDbLine
 10
0.0721387329101563
 20
0.0976053124089081
 30
0.0
 11
0.0721387329101563
 21
0.1156053412993055
 31
0.0
  0
LINE
  5
19F
330
90
100
AcDbEntity
  8
STANDARD
  6
AUSGEZOGEN
 62
     7
440
 33554687
370
    25
100
AcDbLine
 10
0.0811387329101562
 20
0.0974253153134084
 30
0.0
 11
0.0811387329101562
 21
0.115425342060652
 31
0.0
  0
LINE
  5
1A0
330
90
100
AcDbEntity
  8
STANDARD
  6
AUSGEZOGEN
 62
     7
440
 33554687
370
    25
100
AcDbLine
 10
0.0901387329101563
 20
0.0972453182179087
 30
0.0
 11
0.0901387329101563
 21
0.1152453428219985
 31
0.0
  0
LINE
  5
1A1
330
90
100
AcDbEntity
  8
STANDARD
  6
AUSGEZOGEN
 62
     7
440
 33554687
370
    25
100
AcDbLine
 10
0.0991387329101562
 20
0.097065321122409
 30
0.0
 11
0.0991387329101562
 21
0.1150653435833451
 31
0.0
  0
LINE
  5
1A2
330
90
100
AcDbEntity
  8
STANDARD
  6
AUSGEZOGEN
 62
     7
440
 33554687
370
    25
100
AcDbLine
 10
0.1081387329101563
 20
0.0968853240269092
 30
0.0
 11
0.1081387329101563
 21
0.1148853443446916
 31
0.0
  0
LINE
  5
1A3
330
90
100
AcDbEntity
  8
STANDARD
  6
AUSGEZOGEN
 62
     7
440
 33554687
370
    25
100
AcDbLine
 10
0.1171387329101563
 20
0.0967053269314095
 30
0.0
 11
0.1171387329101563
 21
0.1147053451060381
 31
0.0
  0
LINE
  5
1A4
330
90
100
AcDbEntity
  8
STANDARD
  6
AUSGEZOGEN
 62
     7
440
 33554687
370
    25
100
AcDbLine
 10
0.1261387329101563
 20
0.0965253298359098
 30
0.0
 11
0.1261387329101563
 21
0.1145253458673847
 31
0.0
  0
LINE
  5
1A5
330
90
100
AcDbEntity
  8
STANDARD
  6
AUSGEZOGEN
 62
     7
440
 33554687
370
    25
100
AcDbLine
 10
0.1351387329101562
 20
0.0963453327404101
 30
0.0
 11
0.1351387329101562
 21
0.1143453466287312
 31
0.0
  0
LINE
  5
1A6
330
90
100
AcDbEntity
  8
STANDARD
  6
AUSGEZOGEN
 62
     7
440
 33554687
370
    25
100
AcDbLine
 10
0.1441387329101562
 20
0.0961653356449103
 30
0.0
 11
0.1441387329101562
 21
0.1141653473900777
 31
0.0
  0
LINE
  5
1A7
330
90
100
AcDbEntity
  8
STANDARD
  6
AUSGEZOGEN
 62
     7
440
 33554687
370
    25
100
AcDbLine
 10
0.1531387329101563
 20
0.0959853385494106
 30
0.0
 11
0.1531387329101563
 21
0.1139853481514242
 31
0.0
  0
LINE
  5
1A8
330
90
100
AcDbEntity
  8
STANDARD
  6
AUSGEZOGEN
 62
     7
440
 33554687
370
    25
100
AcDbLine
 10
0.1621387329101563
 20
0.0958053414539109
 30
0.0
 11
0.1621387329101563
 21
0.1138053489127708
 31
0.0
  0
LINE
  5
1A9
330
90
100
AcDbEntity
  8
STANDARD
  6
AUSGEZOGEN
 62
     7
440
 33554687
370
    25
100
AcDbLine
 10
0.1711387329101562
 20
0.0956253443584112
 30
0.0
 11
0.1711387329101562
 21
0.1136253496741173
 31
0.0
  0
LINE
  5
1AA
330
90
100
AcDbEntity
  8
STANDARD
  6
AUSGEZOGEN
 62
     7
440
 33554687
370
    25
100
AcDbLine
 10
0.1801387329101563
 20
0.0954453472629115
 30
0.0
 11
0.1801387329101563
 21
0.1134453504354638
 31
0.0
  0
LINE
  5
1AB
330
90
100
AcDbEntity
  8
STANDARD
  6
AUSGEZOGEN
 62
     7
440
 33554687
370
    25
100
AcDbLine
 10
0.1891387329101563
 20
0.0952653501674117
 30
0.0
 11
0.1891387329101563
 21
0.1132653511968104
 31
0.0
  0
LINE
  5
1AC
330
90
100
AcDbEntity
  8
STANDARD
  6
AUSGEZOGEN
 62
     7
440
 33554687
370
    13
100
AcDbLine
 10
0.1378887329101562
 20
0.1302966918945312
 30
0.0
 11
0.1378887329101562
 21
0.1312966918945312
 31
0.0
  0
LINE
  5
1AD
330
90
100
AcDbEntity
  8
STANDARD
  6
AUSGEZOGEN
 62
     7
440
 33554687
370
    13
100
AcDbLine
 10
0.1377886962890625
 20
0.1302966918945312
 30
0.0
 11
0.1377886962890625
 21
0.1312966918945312
 31
0.0
  0
LINE
  5
1AE
330
90
100
AcDbEntity
  8
STANDARD
  6
AUSGEZOGEN
 62
     7
440
 33554687
370
    13
100
AcDbLine
 10
0.1379887084960938
 20
0.1302966918945312
 30
0.0
 11
0.1379887084960938
 21
0.1312966918945312
 31
0.0
  0
LINE
  5
1AF
330
90
100
AcDbEntity
  8
STANDARD
  6
AUSGEZOGEN
 62
     7
440
 33554687
370
    13
100
AcDbLine
 10
0.1380887451171875
 20
0.1302966918945312
 30
0.0
 11
0.1380887451171875
 21
0.1312966918945312
 31
0.0
  0
LINE
  5
1B0
330
90
100
AcDbEntity
  8
STANDARD
  6
AUSGEZOGEN
 62
     7
440
 33554687
370
    13
100
AcDbLine
 10
0.138188720703125
 20
0.1302966918945312
 30
0.0
 11
0.138188720703125
 21
0.1312966918945312
 31
0.0
  0
LINE
  5
1B1
330
90
100
AcDbEntity
  8
STANDARD
  6
AUSGEZOGEN
 62
     7
440
 33554687
370
    13
100
AcDbLine
 10
0.1382887573242187
 20
0.1302966918945312
 30
0.0
 11
0.1382887573242187
 21
0.1312966918945312
 31
0.0
  0
LINE
  5
1B2
330
90
100
AcDbEntity
  8
STANDARD
  6
AUSGEZOGEN
 62
     7
440
 33554687
370
    13
100
AcDbLine
 10
0.13823876953125
 20
0.1302966918945312
 30
0.0
 11
0.13823876953125
 21
0.1312966918945312
 31
0.0
  0
LINE
  5
1B3
330
90
100
AcDbEntity
  8
STANDARD
  6
AUSGEZOGEN
 62
     7
440
 33554687
370
    13
100
AcDbLine
 10
0.1381387329101562
 20
0.1302966918945312
 30
0.0
 11
0.1381387329101562
 21
0.1312966918945312
 31
0.0
  0
LINE
  5
1B4
330
90
100
AcDbEntity
  8
STANDARD
  6
AUSGEZOGEN
 62
     7
440
 33554687
370
    13
100
AcDbLine
 10
0.1380387573242187
 20
0.1302966918945312
 30
0.0
 11
0.1380387573242187
 21
0.1312966918945312
 31
0.0
  0
LINE
  5
1B5
330
90
100
AcDbEntity
  8
STANDARD
  6
AUSGEZOGEN
 62
     7
440
 33554687
370
    13
100
AcDbLine
 10
0.137938720703125
 20
0.1302966918945312
 30
0.0
 11
0.137938720703125
 21
0.1312966918945312
 31
0.0
  0
LINE
  5
1B6
330
90
100
AcDbEntity
  8
STANDARD
  6
AUSGEZOGEN
 62
     7
440
 33554687
370
    13
100
AcDbLine
 10
0.1378387451171875
 20
0.1302966918945312
 30
0.0
 11
0.1378387451171875
 21
0.1312966918945312
 31
0.0
  0
LINE
  5
1B7
330
90
100
AcDbEntity
  8
STANDARD
  6
AUSGEZOGEN
 62
     7
440
 33554687
370
    13
100
AcDbLine
 10
0.1377387084960938
 20
0.1302966918945312
 30
0.0
 11
0.1377387084960938
 21
0.1312966918945312
 31
0.0
  0
LINE
  5
1B8
330
90
100
AcDbEntity
  8
STANDARD
  6
AUSGEZOGEN
 62
     7
440
 33554687
370
    13
100
AcDbLine
 10
0.1376887817382813
 20
0.1302966918945312
 30
0.0
 11
0.1376887817382813
 21
0.1312966918945312
 31
0.0
  0
LINE
  5
1B9
330
90
100
AcDbEntity
  8
STANDARD
  6
AUSGEZOGEN
 62
     7
440
 33554687
370
    13
100
AcDbLine
 10
0.1373387451171875
 20
0.1302966918945312
 30
0.0
 11
0.1373387451171875
 21
0.1312966918945312
 31
0.0
  0
LINE
  5
1BA
330
90
100
AcDbEntity
  8
STANDARD
  6
AUSGEZOGEN
 62
     7
440
 33554687
370
    13
100
AcDbLine
 10
0.1373387451171875
 20
0.1342966918945313
 30
0.0
 11
0.1373387451171875
 21
0.134301284071058
 31
0.0
  0
LINE
  5
1BB
330
90
100
AcDbEntity
  8
STANDARD
  6
AUSGEZOGEN
 62
     7
440
 33554687
370
    13
100
AcDbLine
 10
0.1374387817382813
 20
0.1302966918945312
 30
0.0
 11
0.1374387817382813
 21
0.1312966918945312
 31
0.0
  0
LINE
  5
1BC
330
90
100
AcDbEntity
  8
STANDARD
  6
AUSGEZOGEN
 62
     7
440
 33554687
370
    13
100
AcDbLine
 10
0.1374387817382813
 20
0.1342966918945313
 30
0.0
 11
0.1374387817382813
 21
0.1342992874905467
 31
0.0
  0
LINE
  5
1BD
330
90
100
AcDbEntity
  8
STANDARD
  6
AUSGEZOGEN
 62
     7
440
 33554687
370
    13
100
AcDbLine
 10
0.1375387573242187
 20
0.1302966918945312
 30
0.0
 11
0.1375387573242187
 21
0.1312966918945312
 31
0.0
  0
LINE
  5
1BE
330
90
100
AcDbEntity
  8
STANDARD
  6
AUSGEZOGEN
 62
     7
440
 33554687
370
    13
100
AcDbLine
 10
0.1375387573242187
 20
0.1342966918945313
 30
0.0
 11
0.1375387573242187
 21
0.1342972921282053
 31
0.0
  0
LINE
  5
1BF
330
90
100
AcDbEntity
  8
STANDARD
  6
AUSGEZOGEN
 62
     7
440
 33554687
370
    13
100
AcDbLine
 10
0.1375888061523438
 20
0.1302966918945312
 30
0.0
 11
0.1375888061523438
 21
0.1312966918945312
 31
0.0
  0
LINE
  5
1C0
330
90
100
AcDbEntity
  8
STANDARD
  6
AUSGEZOGEN
 62
     7
440
 33554687
370
    13
100
AcDbLine
 10
0.13748876953125
 20
0.1302966918945312
 30
0.0
 11
0.13748876953125
 21
0.1312966918945312
 31
0.0
  0
LINE
  5
1C1
330
90
100
AcDbEntity
  8
STANDARD
  6
AUSGEZOGEN
 62
     7
440
 33554687
370
    13
100
AcDbLine
 10
0.13748876953125
 20
0.1342966918945313
 30
0.0
 11
0.13748876953125
 21
0.134298289809376
 31
0.0
  0
LINE
  5
1C2
330
90
100
AcDbEntity
  8
STANDARD
  6
AUSGEZOGEN
 62
     7
440
 33554687
370
    13
100
AcDbLine
 10
0.1373887939453125
 20
0.1302966918945312
 30
0.0
 11
0.1373887939453125
 21
0.1312966918945312
 31
0.0
  0
LINE
  5
1C3
330
90
100
AcDbEntity
  8
STANDARD
  6
AUSGEZOGEN
 62
     7
440
 33554687
370
    13
100
AcDbLine
 10
0.1373887939453125
 20
0.1342966918945313
 30
0.0
 11
0.1373887939453125
 21
0.1343002851717174
 31
0.0
  0
LINE
  5
1C4
330
90
100
AcDbEntity
  8
STANDARD
  6
AUSGEZOGEN
 62
     7
440
 33554687
370
    13
100
AcDbLine
 10
0.1378887329101562
 20
0.1282902719378471
 30
0.0
 11
0.1378887329101562
 21
0.1282966918945312
 31
0.0
  0
LINE
  5
1C5
330
90
100
AcDbEntity
  8
STANDARD
  6
AUSGEZOGEN
 62
     7
440
 33554687
370
    13
100
AcDbLine
 10
0.1378887329101562
 20
0.1312966918945312
 30
0.0
 11
0.1378887329101562
 21
0.1322966918945312
 31
0.0
  0
LINE
  5
1C6
330
90
100
AcDbEntity
  8
STANDARD
  6
AUSGEZOGEN
 62
     7
440
 33554687
370
    13
100
AcDbLine
 10
0.1377886962890625
 20
0.1282922746241093
 30
0.0
 11
0.1377886962890625
 21
0.1282966918945312
 31
0.0
  0
LINE
  5
1C7
330
90
100
AcDbEntity
  8
STANDARD
  6
AUSGEZOGEN
 62
     7
440
 33554687
370
    13
100
AcDbLine
 10
0.1377886962890625
 20
0.1312966918945312
 30
0.0
 11
0.1377886962890625
 21
0.1322966918945312
 31
0.0
  0
LINE
  5
1C8
330
90
100
AcDbEntity
  8
STANDARD
  6
AUSGEZOGEN
 62
     7
440
 33554687
370
    13
100
AcDbLine
 10
0.1379887084960938
 20
0.1282882704734802
 30
0.0
 11
0.1379887084960938
 21
0.1282966918945312
 31
0.0
  0
LINE
  5
1C9
330
90
100
AcDbEntity
  8
STANDARD
  6
AUSGEZOGEN
 62
     7
440
 33554687
370
    13
100
AcDbLine
 10
0.1379887084960938
 20
0.1312966918945312
 30
0.0
 11
0.1379887084960938
 21
0.1322966918945312
 31
0.0
  0
LINE
  5
1CA
330
90
100
AcDbEntity
  8
STANDARD
  6
AUSGEZOGEN
 62
     7
440
 33554687
370
    13
100
AcDbLine
 10
0.1380887451171875
 20
0.1282862677872181
 30
0.0
 11
0.1380887451171875
 21
0.1282966918945312
 31
0.0
  0
LINE
  5
1CB
330
90
100
AcDbEntity
  8
STANDARD
  6
AUSGEZOGEN
 62
     7
440
 33554687
370
    13
100
AcDbLine
 10
0.1380887451171875
 20
0.1312966918945312
 30
0.0
 11
0.1380887451171875
 21
0.1322966918945312
 31
0.0
  0
LINE
  5
1CC
330
90
100
AcDbEntity
  8
STANDARD
  6
AUSGEZOGEN
 62
     7
440
 33554687
370
    13
100
AcDbLine
 10
0.138188720703125
 20
0.1282842663228512
 30
0.0
 11
0.138188720703125
 21
0.1282966918945312
 31
0.0
  0
LINE
  5
1CD
330
90
100
AcDbEntity
  8
STANDARD
  6
AUSGEZOGEN
 62
     7
440
 33554687
370
    13
100
AcDbLine
 10
0.138188720703125
 20
0.1312966918945312
 30
0.0
 11
0.138188720703125
 21
0.1322966918945312
 31
0.0
  0
LINE
  5
1CE
330
90
100
AcDbEntity
  8
STANDARD
  6
AUSGEZOGEN
 62
     7
440
 33554687
370
    13
100
AcDbLine
 10
0.1382887573242187
 20
0.1282822636365891
 30
0.0
 11
0.1382887573242187
 21
0.1282966918945312
 31
0.0
  0
LINE
  5
1CF
330
90
100
AcDbEntity
  8
STANDARD
  6
AUSGEZOGEN
 62
     7
440
 33554687
370
    13
100
AcDbLine
 10
0.1382887573242187
 20
0.1312966918945312
 30
0.0
 11
0.1382887573242187
 21
0.1322966918945312
 31
0.0
  0
LINE
  5
1D0
330
90
100
AcDbEntity
  8
STANDARD
  6
AUSGEZOGEN
 62
     7
440
 33554687
370
    13
100
AcDbLine
 10
0.13823876953125
 20
0.1282832643687725
 30
0.0
 11
0.13823876953125
 21
0.1282966918945312
 31
0.0
  0
LINE
  5
1D1
330
90
100
AcDbEntity
  8
STANDARD
  6
AUSGEZOGEN
 62
     7
440
 33554687
370
    13
100
AcDbLine
 10
0.13823876953125
 20
0.1312966918945312
 30
0.0
 11
0.13823876953125
 21
0.1322966918945312
 31
0.0
  0
LINE
  5
1D2
330
90
100
AcDbEntity
  8
STANDARD
  6
AUSGEZOGEN
 62
     7
440
 33554687
370
    13
100
AcDbLine
 10
0.1381387329101562
 20
0.1282852670550347
 30
0.0
 11
0.1381387329101562
 21
0.1282966918945312
 31
0.0
  0
LINE
  5
1D3
330
90
100
AcDbEntity
  8
STANDARD
  6
AUSGEZOGEN
 62
     7
440
 33554687
370
    13
100
AcDbLine
 10
0.1381387329101562
 20
0.1312966918945312
 30
0.0
 11
0.1381387329101562
 21
0.1322966918945312
 31
0.0
  0
LINE
  5
1D4
330
90
100
AcDbEntity
  8
STANDARD
  6
AUSGEZOGEN
 62
     7
440
 33554687
370
    13
100
AcDbLine
 10
0.1380387573242187
 20
0.1282872685194016
 30
0.0
 11
0.1380387573242187
 21
0.1282966918945312
 31
0.0
  0
LINE
  5
1D5
330
90
100
AcDbEntity
  8
STANDARD
  6
AUSGEZOGEN
 62
     7
440
 33554687
370
    13
100
AcDbLine
 10
0.1380387573242187
 20
0.1312966918945312
 30
0.0
 11
0.1380387573242187
 21
0.1322966918945312
 31
0.0
  0
LINE
  5
1D6
330
90
100
AcDbEntity
  8
STANDARD
  6
AUSGEZOGEN
 62
     7
440
 33554687
370
    13
100
AcDbLine
 10
0.137938720703125
 20
0.1282892712056637
 30
0.0
 11
0.137938720703125
 21
0.1282966918945312
 31
0.0
  0
LINE
  5
1D7
330
90
100
AcDbEntity
  8
STANDARD
  6
AUSGEZOGEN
 62
     7
440
 33554687
370
    13
100
AcDbLine
 10
0.137938720703125
 20
0.1312966918945312
 30
0.0
 11
0.137938720703125
 21
0.1322966918945312
 31
0.0
  0
LINE
  5
1D8
330
90
100
AcDbEntity
  8
STANDARD
  6
AUSGEZOGEN
 62
     7
440
 33554687
370
    13
100
AcDbLine
 10
0.1378387451171875
 20
0.1282912726700306
 30
0.0
 11
0.1378387451171875
 21
0.1282966918945312
 31
0.0
  0
LINE
  5
1D9
330
90
100
AcDbEntity
  8
STANDARD
  6
AUSGEZOGEN
 62
     7
440
 33554687
370
    13
100
AcDbLine
 10
0.1378387451171875
 20
0.1312966918945312
 30
0.0
 11
0.1378387451171875
 21
0.1322966918945312
 31
0.0
  0
LINE
  5
1DA
330
90
100
AcDbEntity
  8
STANDARD
  6
AUSGEZOGEN
 62
     7
440
 33554687
370
    13
100
AcDbLine
 10
0.1377387084960938
 20
0.1282932753562927
 30
0.0
 11
0.1377387084960938
 21
0.1282966918945312
 31
0.0
  0
LINE
  5
1DB
330
90
100
AcDbEntity
  8
STANDARD
  6
AUSGEZOGEN
 62
     7
440
 33554687
370
    13
100
AcDbLine
 10
0.1377387084960938
 20
0.1312966918945312
 30
0.0
 11
0.1377387084960938
 21
0.1322966918945312
 31
0.0
  0
LINE
  5
1DC
330
90
100
AcDbEntity
  8
STANDARD
  6
AUSGEZOGEN
 62
     7
440
 33554687
370
    13
100
AcDbLine
 10
0.1376887817382813
 20
0.128294274866581
 30
0.0
 11
0.1376887817382813
 21
0.1282966918945312
 31
0.0
  0
LINE
  5
1DD
330
90
100
AcDbEntity
  8
STANDARD
  6
AUSGEZOGEN
 62
     7
440
 33554687
370
    13
100
AcDbLine
 10
0.1376887817382813
 20
0.1312966918945312
 30
0.0
 11
0.1376887817382813
 21
0.1322966918945312
 31
0.0
  0
LINE
  5
1DE
330
90
100
AcDbEntity
  8
STANDARD
  6
AUSGEZOGEN
 62
     7
440
 33554687
370
    13
100
AcDbLine
 10
0.1373387451171875
 20
0.1312966918945312
 30
0.0
 11
0.1373387451171875
 21
0.1322966918945312
 31
0.0
  0
LINE
  5
1DF
330
90
100
AcDbEntity
  8
STANDARD
  6
AUSGEZOGEN
 62
     7
440
 33554687
370
    13
100
AcDbLine
 10
0.1374387817382813
 20
0.1312966918945312
 30
0.0
 11
0.1374387817382813
 21
0.1322966918945312
 31
0.0
  0
LINE
  5
1E0
330
90
100
AcDbEntity
  8
STANDARD
  6
AUSGEZOGEN
 62
     7
440
 33554687
370
    13
100
AcDbLine
 10
0.1375387573242187
 20
0.1312966918945312
 30
0.0
 11
0.1375387573242187
 21
0.1322966918945312
 31
0.0
  0
LINE
  5
1E1
330
90
100
AcDbEntity
  8
STANDARD
  6
AUSGEZOGEN
 62
     7
440
 33554687
370
    13
100
AcDbLine
 10
0.1375888061523438
 20
0.1282962763309479
 30
0.0
 11
0.1375888061523438
 21
0.1282966918945312
 31
0.0
  0
LINE
  5
1E2
330
90
100
AcDbEntity
  8
STANDARD
  6
AUSGEZOGEN
 62
     7
440
 33554687
370
    13
100
AcDbLine
 10
0.1375888061523438
 20
0.1312966918945312
 30
0.0
 11
0.1375888061523438
 21
0.1322966918945312
 31
0.0
  0
LINE
  5
1E3
330
90
100
AcDbEntity
  8
STANDARD
  6
AUSGEZOGEN
 62
     7
440
 33554687
370
    13
100
AcDbLine
 10
0.13748876953125
 20
0.1312966918945312
 30
0.0
 11
0.13748876953125
 21
0.1322966918945312
 31
0.0
  0
LINE
  5
1E4
330
90
100
AcDbEntity
  8
STANDARD
  6
AUSGEZOGEN
 62
     7
440
 33554687
370
    13
100
AcDbLine
 10
0.1373887939453125
 20
0.1312966918945312
 30
0.0
 11
0.1373887939453125
 21
0.1322966918945312
 31
0.0
  0
LINE
  5
1E5
330
90
100
AcDbEntity
  8
STANDARD
  6
AUSGEZOGEN
 62
     7
440
 33554687
370
    25
100
AcDbLine
 10
0.1373119506835938
 20
0.1663018188476562
 30
0.0
 11
0.1373119506835938
 21
0.1863018188476563
 31
0.0
  0
LINE
  5
1E6
330
90
100
AcDbEntity
  8
STANDARD
  6
AUSGEZOGEN
 62
     7
440
 33554687
370
    25
100
AcDbLine
 10
0.1373119506835938
 20
0.1343018188476562
 30
0.0
 11
0.1934616088867188
 21
0.1331787719726563
 31
0.0
  0
LINE
  5
1E7
330
90
100
AcDbEntity
  8
STANDARD
  6
AUSGEZOGEN
 62
     7
440
 33554687
370
    25
100
AcDbLine
 10
0.1173119506835937
 20
0.1503018188476563
 30
0.0
 11
0.0418276977539063
 21
0.1503018188476563
 31
0.0
  0
LINE
  5
1E8
330
90
100
AcDbEntity
  8
STANDARD
  6
VERDECKT2_S2
 62
     7
440
 33554687
370
    25
100
AcDbLine
 10
0.0973119506835937
 20
0.129101806640625
 30
0.0
 11
0.0418276977539063
 21
0.129101806640625
 31
0.0
  0
LINE
  5
1E9
330
90
100
AcDbEntity
  8
STANDARD
  6
AUSGEZOGEN
 62
     7
440
 33554687
370
    25
100
AcDbLine
 10
0.0804083251953125
 20
0.1502967529296875
 30
0.0
 11
0.080683837890625
 21
0.1503037719726563
 31
0.0
  0
LINE
  5
1EA
330
90
100
AcDbEntity
  8
STANDARD
  6
AUSGEZOGEN
 62
     7
440
 33554687
370
    25
100
AcDbLine
 10
0.080683837890625
 20
0.1503037719726563
 30
0.0
 11
0.080991943359375
 21
0.150459228515625
 31
0.0
  0
LINE
  5
1EB
330
90
100
AcDbEntity
  8
STANDARD
  6
AUSGEZOGEN
 62
     7
440
 33554687
370
    25
100
AcDbLine
 10
0.080991943359375
 20
0.150459228515625
 30
0.0
 11
0.0810194702148438
 21
0.151078857421875
 31
0.0
  0
LINE
  5
1EC
330
90
100
AcDbEntity
  8
STANDARD
  6
AUSGEZOGEN
 62
     7
440
 33554687
370
    25
100
AcDbLine
 10
0.0810194702148438
 20
0.151078857421875
 30
0.0
 11
0.0809107666015625
 21
0.1523697509765625
 31
0.0
  0
LINE
  5
1ED
330
90
100
AcDbEntity
  8
STANDARD
  6
AUSGEZOGEN
 62
     7
440
 33554687
370
    25
100
AcDbLine
 10
0.0809107666015625
 20
0.1523697509765625
 30
0.0
 11
0.08087548828125
 21
0.1550621948242188
 31
0.0
  0
LINE
  5
1EE
330
90
100
AcDbEntity
  8
STANDARD
  6
AUSGEZOGEN
 62
     7
440
 33554687
370
    25
100
AcDbLine
 10
0.08087548828125
 20
0.1550621948242188
 30
0.0
 11
0.0814508666992187
 21
0.1505440063476562
 31
0.0
  0
LINE
  5
1EF
330
90
100
AcDbEntity
  8
STANDARD
  6
AUSGEZOGEN
 62
     7
440
 33554687
370
    25
100
AcDbLine
 10
0.0814508666992187
 20
0.1505440063476562
 30
0.0
 11
0.0818230590820312
 21
0.1502987060546875
 31
0.0
  0
LINE
  5
1F0
330
90
100
AcDbEntity
  8
STANDARD
  6
AUSGEZOGEN
 62
     7
440
 33554687
370
    25
100
AcDbLine
 10
0.0818230590820312
 20
0.1502987060546875
 30
0.0
 11
0.0823137817382813
 21
0.1505693969726563
 31
0.0
  0
LINE
  5
1F1
330
90
100
AcDbEntity
  8
STANDARD
  6
AUSGEZOGEN
 62
     7
440
 33554687
370
    25
100
AcDbLine
 10
0.0823137817382813
 20
0.1505693969726563
 30
0.0
 11
0.0824577026367188
 21
0.1510432739257813
 31
0.0
  0
LINE
  5
1F2
330
90
100
AcDbEntity
  8
STANDARD
  6
AUSGEZOGEN
 62
     7
440
 33554687
370
    25
100
AcDbLine
 10
0.0824577026367188
 20
0.1510432739257813
 30
0.0
 11
0.0822715454101563
 21
0.1522362670898438
 31
0.0
  0
LINE
  5
1F3
330
90
100
AcDbEntity
  8
STANDARD
  6
AUSGEZOGEN
 62
     7
440
 33554687
370
    25
100
AcDbLine
 10
0.0822715454101563
 20
0.1522362670898438
 30
0.0
 11
0.0822545776367188
 21
0.15360693359375
 31
0.0
  0
LINE
  5
1F4
330
90
100
AcDbEntity
  8
STANDARD
  6
AUSGEZOGEN
 62
     7
440
 33554687
370
    25
100
AcDbLine
 10
0.0822545776367188
 20
0.15360693359375
 30
0.0
 11
0.0823646240234375
 21
0.1527439575195313
 31
0.0
  0
LINE
  5
1F5
330
90
100
AcDbEntity
  8
STANDARD
  6
AUSGEZOGEN
 62
     7
440
 33554687
370
    25
100
AcDbLine
 10
0.0823646240234375
 20
0.1527439575195313
 30
0.0
 11
0.0827283935546875
 21
0.1513563232421875
 31
0.0
  0
LINE
  5
1F6
330
90
100
AcDbEntity
  8
STANDARD
  6
AUSGEZOGEN
 62
     7
440
 33554687
370
    25
100
AcDbLine
 10
0.0827283935546875
 20
0.1513563232421875
 30
0.0
 11
0.0832868041992188
 21
0.1502901611328125
 31
0.0
  0
LINE
  5
1F7
330
90
100
AcDbEntity
  8
STANDARD
  6
AUSGEZOGEN
 62
     7
440
 33554687
370
    25
100
AcDbLine
 10
0.0832868041992188
 20
0.1502901611328125
 30
0.0
 11
0.0835660400390625
 21
0.1504678955078125
 31
0.0
  0
LINE
  5
1F8
330
90
100
AcDbEntity
  8
STANDARD
  6
AUSGEZOGEN
 62
     7
440
 33554687
370
    25
100
AcDbLine
 10
0.0835660400390625
 20
0.1504678955078125
 30
0.0
 11
0.083676025390625
 21
0.152109375
 31
0.0
  0
LINE
  5
1F9
330
90
100
AcDbEntity
  8
STANDARD
  6
AUSGEZOGEN
 62
     7
440
 33554687
370
    25
100
AcDbLine
 10
0.083676025390625
 20
0.152109375
 30
0.0
 11
0.0836929931640625
 21
0.1550707397460938
 31
0.0
  0
LINE
  5
1FA
330
90
100
AcDbEntity
  8
STANDARD
  6
AUSGEZOGEN
 62
     7
440
 33554687
370
    25
100
AcDbLine
 10
0.0836929931640625
 20
0.1550707397460938
 30
0.0
 11
0.083777587890625
 21
0.1542753295898437
 31
0.0
  0
LINE
  5
1FB
330
90
100
AcDbEntity
  8
STANDARD
  6
AUSGEZOGEN
 62
     7
440
 33554687
370
    25
100
AcDbLine
 10
0.083777587890625
 20
0.1542753295898437
 30
0.0
 11
0.0840728149414063
 21
0.1527136840820313
 31
0.0
  0
LINE
  5
1FC
330
90
100
AcDbEntity
  8
STANDARD
  6
AUSGEZOGEN
 62
     7
440
 33554687
370
    25
100
AcDbLine
 10
0.0840728149414063
 20
0.1527136840820313
 30
0.0
 11
0.0841588745117187
 21
0.151502197265625
 31
0.0
  0
LINE
  5
1FD
330
90
100
AcDbEntity
  8
STANDARD
  6
AUSGEZOGEN
 62
     7
440
 33554687
370
    25
100
AcDbLine
 10
0.0841588745117187
 20
0.151502197265625
 30
0.0
 11
0.08442333984375
 21
0.1506243896484375
 31
0.0
  0
LINE
  5
1FE
330
90
100
AcDbEntity
  8
STANDARD
  6
AUSGEZOGEN
 62
     7
440
 33554687
370
    25
100
AcDbLine
 10
0.08442333984375
 20
0.1506243896484375
 30
0.0
 11
0.0846559448242187
 21
0.1502542114257812
 31
0.0
  0
LINE
  5
1FF
330
90
100
AcDbEntity
  8
STANDARD
  6
AUSGEZOGEN
 62
     7
440
 33554687
370
    25
100
AcDbLine
 10
0.0846559448242187
 20
0.1502542114257812
 30
0.0
 11
0.0855020751953125
 21
0.1502965087890625
 31
0.0
  0
LINE
  5
200
330
90
100
AcDbEntity
  8
STANDARD
  6
AUSGEZOGEN
 62
     7
440
 33554687
370
    25
100
AcDbLine
 10
0.0855020751953125
 20
0.1502965087890625
 30
0.0
 11
0.085777099609375
 21
0.1504552001953125
 31
0.0
  0
LINE
  5
201
330
90
100
AcDbEntity
  8
STANDARD
  6
AUSGEZOGEN
 62
     7
440
 33554687
370
    25
100
AcDbLine
 10
0.085777099609375
 20
0.1504552001953125
 30
0.0
 11
0.0858345336914063
 21
0.1511444091796875
 31
0.0
  0
LINE
  5
202
330
90
100
AcDbEntity
  8
STANDARD
  6
AUSGEZOGEN
 62
     7
440
 33554687
370
    25
100
AcDbLine
 10
0.0858345336914063
 20
0.1511444091796875
 30
0.0
 11
0.0856991577148438
 21
0.15246435546875
 31
0.0
  0
LINE
  5
203
330
90
100
AcDbEntity
  8
STANDARD
  6
AUSGEZOGEN
 62
     7
440
 33554687
370
    25
100
AcDbLine
 10
0.0856991577148438
 20
0.15246435546875
 30
0.0
 11
0.0857158813476563
 21
0.1550269165039063
 31
0.0
  0
LINE
  5
204
330
90
100
AcDbEntity
  8
STANDARD
  6
AUSGEZOGEN
 62
     7
440
 33554687
370
    25
100
AcDbLine
 10
0.0857158813476563
 20
0.1550269165039063
 30
0.0
 11
0.0862552490234375
 21
0.1505849609375
 31
0.0
  0
LINE
  5
205
330
90
100
AcDbEntity
  8
STANDARD
  6
AUSGEZOGEN
 62
     7
440
 33554687
370
    25
100
AcDbLine
 10
0.0862552490234375
 20
0.1505849609375
 30
0.0
 11
0.0866432495117188
 21
0.1502801513671875
 31
0.0
  0
LINE
  5
206
330
90
100
AcDbEntity
  8
STANDARD
  6
AUSGEZOGEN
 62
     7
440
 33554687
370
    25
100
AcDbLine
 10
0.0866432495117188
 20
0.1502801513671875
 30
0.0
 11
0.0870764770507813
 21
0.1505779418945312
 31
0.0
  0
LINE
  5
207
330
90
100
AcDbEntity
  8
STANDARD
  6
AUSGEZOGEN
 62
     7
440
 33554687
370
    25
100
AcDbLine
 10
0.0870764770507813
 20
0.1505779418945312
 30
0.0
 11
0.0872659912109375
 21
0.1511058959960938
 31
0.0
  0
LINE
  5
208
330
90
100
AcDbEntity
  8
STANDARD
  6
AUSGEZOGEN
 62
     7
440
 33554687
370
    25
100
AcDbLine
 10
0.0872659912109375
 20
0.1511058959960938
 30
0.0
 11
0.0870493774414063
 21
0.1522904663085937
 31
0.0
  0
LINE
  5
209
330
90
100
AcDbEntity
  8
STANDARD
  6
AUSGEZOGEN
 62
     7
440
 33554687
370
    25
100
AcDbLine
 10
0.0870493774414063
 20
0.1522904663085937
 30
0.0
 11
0.087029052734375
 21
0.1536103515625
 31
0.0
  0
LINE
  5
20A
330
90
100
AcDbEntity
  8
STANDARD
  6
AUSGEZOGEN
 62
     7
440
 33554687
370
    25
100
AcDbLine
 10
0.087029052734375
 20
0.1536103515625
 30
0.0
 11
0.08715087890625
 21
0.1527574462890625
 31
0.0
  0
LINE
  5
20B
330
90
100
AcDbEntity
  8
STANDARD
  6
AUSGEZOGEN
 62
     7
440
 33554687
370
    25
100
AcDbLine
 10
0.08715087890625
 20
0.1527574462890625
 30
0.0
 11
0.0876040649414063
 21
0.1511876220703125
 31
0.0
  0
LINE
  5
20C
330
90
100
AcDbEntity
  8
STANDARD
  6
AUSGEZOGEN
 62
     7
440
 33554687
370
    25
100
AcDbLine
 10
0.0876040649414063
 20
0.1511876220703125
 30
0.0
 11
0.0880799560546875
 21
0.1503018188476563
 31
0.0
  0
LINE
  5
20D
330
90
100
AcDbEntity
  8
STANDARD
  6
AUSGEZOGEN
 62
     7
440
 33554687
370
    25
100
AcDbLine
 10
0.067504638671875
 20
0.1502916870117187
 30
0.0
 11
0.0677801513671875
 21
0.1502987060546875
 31
0.0
  0
LINE
  5
20E
330
90
100
AcDbEntity
  8
STANDARD
  6
AUSGEZOGEN
 62
     7
440
 33554687
370
    25
100
AcDbLine
 10
0.0677801513671875
 20
0.1502987060546875
 30
0.0
 11
0.0680883178710937
 21
0.1504541625976563
 31
0.0
  0
LINE
  5
20F
330
90
100
AcDbEntity
  8
STANDARD
  6
AUSGEZOGEN
 62
     7
440
 33554687
370
    25
100
AcDbLine
 10
0.0680883178710937
 20
0.1504541625976563
 30
0.0
 11
0.0681158447265625
 21
0.1510737915039063
 31
0.0
  0
LINE
  5
210
330
90
100
AcDbEntity
  8
STANDARD
  6
AUSGEZOGEN
 62
     7
440
 33554687
370
    25
100
AcDbLine
 10
0.0681158447265625
 20
0.1510737915039063
 30
0.0
 11
0.0680071411132813
 21
0.1523646240234375
 31
0.0
  0
LINE
  5
211
330
90
100
AcDbEntity
  8
STANDARD
  6
AUSGEZOGEN
 62
     7
440
 33554687
370
    25
100
AcDbLine
 10
0.0680071411132813
 20
0.1523646240234375
 30
0.0
 11
0.0679718627929688
 21
0.15505712890625
 31
0.0
  0
LINE
  5
212
330
90
100
AcDbEntity
  8
STANDARD
  6
AUSGEZOGEN
 62
     7
440
 33554687
370
    25
100
AcDbLine
 10
0.0679718627929688
 20
0.15505712890625
 30
0.0
 11
0.068547119140625
 21
0.1505389404296875
 31
0.0
  0
LINE
  5
213
330
90
100
AcDbEntity
  8
STANDARD
  6
AUSGEZOGEN
 62
     7
440
 33554687
370
    25
100
AcDbLine
 10
0.068547119140625
 20
0.1505389404296875
 30
0.0
 11
0.06891943359375
 21
0.1502936401367188
 31
0.0
  0
LINE
  5
214
330
90
100
AcDbEntity
  8
STANDARD
  6
AUSGEZOGEN
 62
     7
440
 33554687
370
    25
100
AcDbLine
 10
0.06891943359375
 20
0.1502936401367188
 30
0.0
 11
0.06941015625
 21
0.1505643310546875
 31
0.0
  0
LINE
  5
215
330
90
100
AcDbEntity
  8
STANDARD
  6
AUSGEZOGEN
 62
     7
440
 33554687
370
    25
100
AcDbLine
 10
0.06941015625
 20
0.1505643310546875
 30
0.0
 11
0.0695540771484375
 21
0.1510382080078125
 31
0.0
  0
LINE
  5
216
330
90
100
AcDbEntity
  8
STANDARD
  6
AUSGEZOGEN
 62
     7
440
 33554687
370
    25
100
AcDbLine
 10
0.0695540771484375
 20
0.1510382080078125
 30
0.0
 11
0.0693678588867187
 21
0.152231201171875
 31
0.0
  0
LINE
  5
217
330
90
100
AcDbEntity
  8
STANDARD
  6
AUSGEZOGEN
 62
     7
440
 33554687
370
    25
100
AcDbLine
 10
0.0693678588867187
 20
0.152231201171875
 30
0.0
 11
0.0693509521484375
 21
0.1536018676757812
 31
0.0
  0
LINE
  5
218
330
90
100
AcDbEntity
  8
STANDARD
  6
AUSGEZOGEN
 62
     7
440
 33554687
370
    25
100
AcDbLine
 10
0.0693509521484375
 20
0.1536018676757812
 30
0.0
 11
0.0694609985351562
 21
0.15273876953125
 31
0.0
  0
LINE
  5
219
330
90
100
AcDbEntity
  8
STANDARD
  6
AUSGEZOGEN
 62
     7
440
 33554687
370
    25
100
AcDbLine
 10
0.0694609985351562
 20
0.15273876953125
 30
0.0
 11
0.0698247680664063
 21
0.1513511962890625
 31
0.0
  0
LINE
  5
21A
330
90
100
AcDbEntity
  8
STANDARD
  6
AUSGEZOGEN
 62
     7
440
 33554687
370
    25
100
AcDbLine
 10
0.0698247680664063
 20
0.1513511962890625
 30
0.0
 11
0.0703831787109375
 21
0.1502850952148438
 31
0.0
  0
LINE
  5
21B
330
90
100
AcDbEntity
  8
STANDARD
  6
AUSGEZOGEN
 62
     7
440
 33554687
370
    25
100
AcDbLine
 10
0.0703831787109375
 20
0.1502850952148438
 30
0.0
 11
0.0706624145507812
 21
0.1504628295898437
 31
0.0
  0
LINE
  5
21C
330
90
100
AcDbEntity
  8
STANDARD
  6
AUSGEZOGEN
 62
     7
440
 33554687
370
    25
100
AcDbLine
 10
0.0706624145507812
 20
0.1504628295898437
 30
0.0
 11
0.0707723388671875
 21
0.1521043090820313
 31
0.0
  0
LINE
  5
21D
330
90
100
AcDbEntity
  8
STANDARD
  6
AUSGEZOGEN
 62
     7
440
 33554687
370
    25
100
AcDbLine
 10
0.0707723388671875
 20
0.1521043090820313
 30
0.0
 11
0.070789306640625
 21
0.155065673828125
 31
0.0
  0
LINE
  5
21E
330
90
100
AcDbEntity
  8
STANDARD
  6
AUSGEZOGEN
 62
     7
440
 33554687
370
    25
100
AcDbLine
 10
0.070789306640625
 20
0.155065673828125
 30
0.0
 11
0.0708739624023438
 21
0.154270263671875
 31
0.0
  0
LINE
  5
21F
330
90
100
AcDbEntity
  8
STANDARD
  6
AUSGEZOGEN
 62
     7
440
 33554687
370
    25
100
AcDbLine
 10
0.0708739624023438
 20
0.154270263671875
 30
0.0
 11
0.071169189453125
 21
0.15270849609375
 31
0.0
  0
LINE
  5
220
330
90
100
AcDbEntity
  8
STANDARD
  6
AUSGEZOGEN
 62
     7
440
 33554687
370
    25
100
AcDbLine
 10
0.071169189453125
 20
0.15270849609375
 30
0.0
 11
0.0712552490234375
 21
0.1514971313476562
 31
0.0
  0
LINE
  5
221
330
90
100
AcDbEntity
  8
STANDARD
  6
AUSGEZOGEN
 62
     7
440
 33554687
370
    25
100
AcDbLine
 10
0.0712552490234375
 20
0.1514971313476562
 30
0.0
 11
0.0715196533203125
 21
0.1506193237304687
 31
0.0
  0
LINE
  5
222
330
90
100
AcDbEntity
  8
STANDARD
  6
AUSGEZOGEN
 62
     7
440
 33554687
370
    25
100
AcDbLine
 10
0.0715196533203125
 20
0.1506193237304687
 30
0.0
 11
0.0717523193359375
 21
0.1502491455078125
 31
0.0
  0
LINE
  5
223
330
90
100
AcDbEntity
  8
STANDARD
  6
AUSGEZOGEN
 62
     7
440
 33554687
370
    25
100
AcDbLine
 10
0.0717523193359375
 20
0.1502491455078125
 30
0.0
 11
0.0725984497070312
 21
0.1502914428710938
 31
0.0
  0
LINE
  5
224
330
90
100
AcDbEntity
  8
STANDARD
  6
AUSGEZOGEN
 62
     7
440
 33554687
370
    25
100
AcDbLine
 10
0.0725984497070312
 20
0.1502914428710938
 30
0.0
 11
0.0728734130859375
 21
0.1504500732421875
 31
0.0
  0
LINE
  5
225
330
90
100
AcDbEntity
  8
STANDARD
  6
AUSGEZOGEN
 62
     7
440
 33554687
370
    25
100
AcDbLine
 10
0.0728734130859375
 20
0.1504500732421875
 30
0.0
 11
0.072930908203125
 21
0.1511393432617187
 31
0.0
  0
LINE
  5
226
330
90
100
AcDbEntity
  8
STANDARD
  6
AUSGEZOGEN
 62
     7
440
 33554687
370
    25
100
AcDbLine
 10
0.072930908203125
 20
0.1511393432617187
 30
0.0
 11
0.0727955322265625
 21
0.1524592895507813
 31
0.0
  0
LINE
  5
227
330
90
100
AcDbEntity
  8
STANDARD
  6
AUSGEZOGEN
 62
     7
440
 33554687
370
    25
100
AcDbLine
 10
0.0727955322265625
 20
0.1524592895507813
 30
0.0
 11
0.072812255859375
 21
0.1550218505859375
 31
0.0
  0
LINE
  5
228
330
90
100
AcDbEntity
  8
STANDARD
  6
AUSGEZOGEN
 62
     7
440
 33554687
370
    25
100
AcDbLine
 10
0.072812255859375
 20
0.1550218505859375
 30
0.0
 11
0.0733516235351563
 21
0.1505798950195313
 31
0.0
  0
LINE
  5
229
330
90
100
AcDbEntity
  8
STANDARD
  6
AUSGEZOGEN
 62
     7
440
 33554687
370
    25
100
AcDbLine
 10
0.0733516235351563
 20
0.1505798950195313
 30
0.0
 11
0.0737395629882813
 21
0.1502749633789063
 31
0.0
  0
LINE
  5
22A
330
90
100
AcDbEntity
  8
STANDARD
  6
AUSGEZOGEN
 62
     7
440
 33554687
370
    25
100
AcDbLine
 10
0.0737395629882813
 20
0.1502749633789063
 30
0.0
 11
0.0741728515625
 21
0.1505728759765625
 31
0.0
  0
LINE
  5
22B
330
90
100
AcDbEntity
  8
STANDARD
  6
AUSGEZOGEN
 62
     7
440
 33554687
370
    25
100
AcDbLine
 10
0.0741728515625
 20
0.1505728759765625
 30
0.0
 11
0.0743623657226563
 21
0.151100830078125
 31
0.0
  0
LINE
  5
22C
330
90
100
AcDbEntity
  8
STANDARD
  6
AUSGEZOGEN
 62
     7
440
 33554687
370
    25
100
AcDbLine
 10
0.0743623657226563
 20
0.151100830078125
 30
0.0
 11
0.074145751953125
 21
0.152285400390625
 31
0.0
  0
LINE
  5
22D
330
90
100
AcDbEntity
  8
STANDARD
  6
AUSGEZOGEN
 62
     7
440
 33554687
370
    25
100
AcDbLine
 10
0.074145751953125
 20
0.152285400390625
 30
0.0
 11
0.0741254272460938
 21
0.1536052856445312
 31
0.0
  0
LINE
  5
22E
330
90
100
AcDbEntity
  8
STANDARD
  6
AUSGEZOGEN
 62
     7
440
 33554687
370
    25
100
AcDbLine
 10
0.0741254272460938
 20
0.1536052856445312
 30
0.0
 11
0.0742472534179688
 21
0.1527523803710938
 31
0.0
  0
LINE
  5
22F
330
90
100
AcDbEntity
  8
STANDARD
  6
AUSGEZOGEN
 62
     7
440
 33554687
370
    25
100
AcDbLine
 10
0.0742472534179688
 20
0.1527523803710938
 30
0.0
 11
0.074700439453125
 21
0.1511825561523437
 31
0.0
  0
LINE
  5
230
330
90
100
AcDbEntity
  8
STANDARD
  6
AUSGEZOGEN
 62
     7
440
 33554687
370
    25
100
AcDbLine
 10
0.074700439453125
 20
0.1511825561523437
 30
0.0
 11
0.0751763305664063
 21
0.1502967529296875
 31
0.0
  0
LINE
  5
231
330
90
100
AcDbEntity
  8
STANDARD
  6
AUSGEZOGEN
 62
     7
440
 33554687
370
    25
100
AcDbLine
 10
0.0546010131835937
 20
0.15028662109375
 30
0.0
 11
0.0548765258789062
 21
0.1502936401367188
 31
0.0
  0
LINE
  5
232
330
90
100
AcDbEntity
  8
STANDARD
  6
AUSGEZOGEN
 62
     7
440
 33554687
370
    25
100
AcDbLine
 10
0.0548765258789062
 20
0.1502936401367188
 30
0.0
 11
0.0551846313476562
 21
0.150448974609375
 31
0.0
  0
LINE
  5
233
330
90
100
AcDbEntity
  8
STANDARD
  6
AUSGEZOGEN
 62
     7
440
 33554687
370
    25
100
AcDbLine
 10
0.0551846313476562
 20
0.150448974609375
 30
0.0
 11
0.0552122192382812
 21
0.1510687866210937
 31
0.0
  0
LINE
  5
234
330
90
100
AcDbEntity
  8
STANDARD
  6
AUSGEZOGEN
 62
     7
440
 33554687
370
    25
100
AcDbLine
 10
0.0552122192382812
 20
0.1510687866210937
 30
0.0
 11
0.0551034545898438
 21
0.1523595581054688
 31
0.0
  0
LINE
  5
235
330
90
100
AcDbEntity
  8
STANDARD
  6
AUSGEZOGEN
 62
     7
440
 33554687
370
    25
100
AcDbLine
 10
0.0551034545898438
 20
0.1523595581054688
 30
0.0
 11
0.0550682373046875
 21
0.1550520629882813
 31
0.0
  0
LINE
  5
236
330
90
100
AcDbEntity
  8
STANDARD
  6
AUSGEZOGEN
 62
     7
440
 33554687
370
    25
100
AcDbLine
 10
0.0550682373046875
 20
0.1550520629882813
 30
0.0
 11
0.0556434936523438
 21
0.1505338745117188
 31
0.0
  0
LINE
  5
237
330
90
100
AcDbEntity
  8
STANDARD
  6
AUSGEZOGEN
 62
     7
440
 33554687
370
    25
100
AcDbLine
 10
0.0556434936523438
 20
0.1505338745117188
 30
0.0
 11
0.0560158081054688
 21
0.1502885131835938
 31
0.0
  0
LINE
  5
238
330
90
100
AcDbEntity
  8
STANDARD
  6
AUSGEZOGEN
 62
     7
440
 33554687
370
    25
100
AcDbLine
 10
0.0560158081054688
 20
0.1502885131835938
 30
0.0
 11
0.0565065307617187
 21
0.150559326171875
 31
0.0
  0
LINE
  5
239
330
90
100
AcDbEntity
  8
STANDARD
  6
AUSGEZOGEN
 62
     7
440
 33554687
370
    25
100
AcDbLine
 10
0.0565065307617187
 20
0.150559326171875
 30
0.0
 11
0.056650390625
 21
0.1510331420898438
 31
0.0
  0
LINE
  5
23A
330
90
100
AcDbEntity
  8
STANDARD
  6
AUSGEZOGEN
 62
     7
440
 33554687
370
    25
100
AcDbLine
 10
0.056650390625
 20
0.1510331420898438
 30
0.0
 11
0.0564642333984375
 21
0.1522261352539062
 31
0.0
  0
LINE
  5
23B
330
90
100
AcDbEntity
  8
STANDARD
  6
AUSGEZOGEN
 62
     7
440
 33554687
370
    25
100
AcDbLine
 10
0.0564642333984375
 20
0.1522261352539062
 30
0.0
 11
0.056447265625
 21
0.1535968017578125
 31
0.0
  0
LINE
  5
23C
330
90
100
AcDbEntity
  8
STANDARD
  6
AUSGEZOGEN
 62
     7
440
 33554687
370
    25
100
AcDbLine
 10
0.056447265625
 20
0.1535968017578125
 30
0.0
 11
0.0565573120117187
 21
0.1527337646484375
 31
0.0
  0
LINE
  5
23D
330
90
100
AcDbEntity
  8
STANDARD
  6
AUSGEZOGEN
 62
     7
440
 33554687
370
    25
100
AcDbLine
 10
0.0565573120117187
 20
0.1527337646484375
 30
0.0
 11
0.056921142578125
 21
0.1513461303710938
 31
0.0
  0
LINE
  5
23E
330
90
100
AcDbEntity
  8
STANDARD
  6
AUSGEZOGEN
 62
     7
440
 33554687
370
    25
100
AcDbLine
 10
0.056921142578125
 20
0.1513461303710938
 30
0.0
 11
0.0574795532226563
 21
0.150280029296875
 31
0.0
  0
LINE
  5
23F
330
90
100
AcDbEntity
  8
STANDARD
  6
AUSGEZOGEN
 62
     7
440
 33554687
370
    25
100
AcDbLine
 10
0.0574795532226563
 20
0.150280029296875
 30
0.0
 11
0.0577587890625
 21
0.150457763671875
 31
0.0
  0
LINE
  5
240
330
90
100
AcDbEntity
  8
STANDARD
  6
AUSGEZOGEN
 62
     7
440
 33554687
370
    25
100
AcDbLine
 10
0.0577587890625
 20
0.150457763671875
 30
0.0
 11
0.0578687133789062
 21
0.1520992431640625
 31
0.0
  0
LINE
  5
241
330
90
100
AcDbEntity
  8
STANDARD
  6
AUSGEZOGEN
 62
     7
440
 33554687
370
    25
100
AcDbLine
 10
0.0578687133789062
 20
0.1520992431640625
 30
0.0
 11
0.0578856811523438
 21
0.1550604858398437
 31
0.0
  0
LINE
  5
242
330
90
100
AcDbEntity
  8
STANDARD
  6
AUSGEZOGEN
 62
     7
440
 33554687
370
    25
100
AcDbLine
 10
0.0578856811523438
 20
0.1550604858398437
 30
0.0
 11
0.0579703369140625
 21
0.1542651977539063
 31
0.0
  0
LINE
  5
243
330
90
100
AcDbEntity
  8
STANDARD
  6
AUSGEZOGEN
 62
     7
440
 33554687
370
    25
100
AcDbLine
 10
0.0579703369140625
 20
0.1542651977539063
 30
0.0
 11
0.0582655639648438
 21
0.1527034301757813
 31
0.0
  0
LINE
  5
244
330
90
100
AcDbEntity
  8
STANDARD
  6
AUSGEZOGEN
 62
     7
440
 33554687
370
    25
100
AcDbLine
 10
0.0582655639648438
 20
0.1527034301757813
 30
0.0
 11
0.0583516235351563
 21
0.1514920654296875
 31
0.0
  0
LINE
  5
245
330
90
100
AcDbEntity
  8
STANDARD
  6
AUSGEZOGEN
 62
     7
440
 33554687
370
    25
100
AcDbLine
 10
0.0583516235351563
 20
0.1514920654296875
 30
0.0
 11
0.0586160278320313
 21
0.1506142578125
 31
0.0
  0
LINE
  5
246
330
90
100
AcDbEntity
  8
STANDARD
  6
AUSGEZOGEN
 62
     7
440
 33554687
370
    25
100
AcDbLine
 10
0.0586160278320313
 20
0.1506142578125
 30
0.0
 11
0.0588486328125
 21
0.1502440795898438
 31
0.0
  0
LINE
  5
247
330
90
100
AcDbEntity
  8
STANDARD
  6
AUSGEZOGEN
 62
     7
440
 33554687
370
    25
100
AcDbLine
 10
0.0588486328125
 20
0.1502440795898438
 30
0.0
 11
0.05969482421875
 21
0.150286376953125
 31
0.0
  0
LINE
  5
248
330
90
100
AcDbEntity
  8
STANDARD
  6
AUSGEZOGEN
 62
     7
440
 33554687
370
    25
100
AcDbLine
 10
0.05969482421875
 20
0.150286376953125
 30
0.0
 11
0.0599697875976563
 21
0.1504450073242188
 31
0.0
  0
LINE
  5
249
330
90
100
AcDbEntity
  8
STANDARD
  6
AUSGEZOGEN
 62
     7
440
 33554687
370
    25
100
AcDbLine
 10
0.0599697875976563
 20
0.1504450073242188
 30
0.0
 11
0.0600272827148437
 21
0.15113427734375
 31
0.0
  0
LINE
  5
24A
330
90
100
AcDbEntity
  8
STANDARD
  6
AUSGEZOGEN
 62
     7
440
 33554687
370
    25
100
AcDbLine
 10
0.0600272827148437
 20
0.15113427734375
 30
0.0
 11
0.0598919067382813
 21
0.1524542236328125
 31
0.0
  0
LINE
  5
24B
330
90
100
AcDbEntity
  8
STANDARD
  6
AUSGEZOGEN
 62
     7
440
 33554687
370
    25
100
AcDbLine
 10
0.0598919067382813
 20
0.1524542236328125
 30
0.0
 11
0.0599086303710938
 21
0.1550167846679688
 31
0.0
  0
LINE
  5
24C
330
90
100
AcDbEntity
  8
STANDARD
  6
AUSGEZOGEN
 62
     7
440
 33554687
370
    25
100
AcDbLine
 10
0.0599086303710938
 20
0.1550167846679688
 30
0.0
 11
0.060447998046875
 21
0.1505747680664062
 31
0.0
  0
LINE
  5
24D
330
90
100
AcDbEntity
  8
STANDARD
  6
AUSGEZOGEN
 62
     7
440
 33554687
370
    25
100
AcDbLine
 10
0.060447998046875
 20
0.1505747680664062
 30
0.0
 11
0.0608359375
 21
0.1502699584960938
 31
0.0
  0
LINE
  5
24E
330
90
100
AcDbEntity
  8
STANDARD
  6
AUSGEZOGEN
 62
     7
440
 33554687
370
    25
100
AcDbLine
 10
0.0608359375
 20
0.1502699584960938
 30
0.0
 11
0.0612692260742188
 21
0.1505678100585938
 31
0.0
  0
LINE
  5
24F
330
90
100
AcDbEntity
  8
STANDARD
  6
AUSGEZOGEN
 62
     7
440
 33554687
370
    25
100
AcDbLine
 10
0.0612692260742188
 20
0.1505678100585938
 30
0.0
 11
0.061458740234375
 21
0.1510957641601562
 31
0.0
  0
LINE
  5
250
330
90
100
AcDbEntity
  8
STANDARD
  6
AUSGEZOGEN
 62
     7
440
 33554687
370
    25
100
AcDbLine
 10
0.061458740234375
 20
0.1510957641601562
 30
0.0
 11
0.0612421264648438
 21
0.1522803344726563
 31
0.0
  0
LINE
  5
251
330
90
100
AcDbEntity
  8
STANDARD
  6
AUSGEZOGEN
 62
     7
440
 33554687
370
    25
100
AcDbLine
 10
0.0612421264648438
 20
0.1522803344726563
 30
0.0
 11
0.0612218017578125
 21
0.1536002197265625
 31
0.0
  0
LINE
  5
252
330
90
100
AcDbEntity
  8
STANDARD
  6
AUSGEZOGEN
 62
     7
440
 33554687
370
    25
100
AcDbLine
 10
0.0612218017578125
 20
0.1536002197265625
 30
0.0
 11
0.0613436279296875
 21
0.152747314453125
 31
0.0
  0
LINE
  5
253
330
90
100
AcDbEntity
  8
STANDARD
  6
AUSGEZOGEN
 62
     7
440
 33554687
370
    25
100
AcDbLine
 10
0.0613436279296875
 20
0.152747314453125
 30
0.0
 11
0.0617968139648438
 21
0.151177490234375
 31
0.0
  0
LINE
  5
254
330
90
100
AcDbEntity
  8
STANDARD
  6
AUSGEZOGEN
 62
     7
440
 33554687
370
    25
100
AcDbLine
 10
0.0617968139648438
 20
0.151177490234375
 30
0.0
 11
0.062272705078125
 21
0.1502916870117187
 31
0.0
  0
LINE
  5
255
330
90
100
AcDbEntity
  8
STANDARD
  6
VERDECKT2_S2
 62
     7
440
 33554687
370
    25
100
AcDbLine
 10
0.0973119506835937
 20
0.0991018676757812
 30
0.0
 11
0.0973119506835937
 21
0.129101806640625
 31
0.0
  0
LINE
  5
256
330
90
100
AcDbEntity
  8
STANDARD
  6
AUSGEZOGEN
 62
     7
440
 33554687
370
    25
100
AcDbLine
 10
0.0635904541015625
 20
0.1157763061523438
 30
0.0
 11
0.1934616088867188
 21
0.1131788940429688
 31
0.0
  0
LINE
  5
257
330
90
100
AcDbEntity
  8
STANDARD
  6
AUSGEZOGEN
 62
     7
440
 33554687
370
    25
100
AcDbLine
 10
0.0359453735351562
 20
0.0983291625976563
 30
0.0
 11
0.1934616088867188
 21
0.0951788940429688
 31
0.0
  0
LINE
  5
258
330
90
100
AcDbEntity
  8
STANDARD
  6
AUSGEZOGEN
 62
     7
440
 33554687
370
    25
100
AcDbLine
 10
0.1336719970703125
 20
0.1185653076171875
 30
0.0
 11
0.1336719970703125
 21
0.1288028564453125
 31
0.0
  0
LINE
  5
259
330
90
100
AcDbEntity
  8
STANDARD
  6
AUSGEZOGEN
 62
     7
440
 33554687
370
    25
100
AcDbLine
 10
0.1336719970703125
 20
0.1292528686523438
 30
0.0
 11
0.1336719970703125
 21
0.1292528686523438
 31
0.0
  0
LINE
  5
25A
330
90
100
AcDbEntity
  8
STANDARD
  6
AUSGEZOGEN
 62
     7
440
 33554687
370
    25
100
AcDbLine
 10
0.1336719970703125
 20
0.1283529052734375
 30
0.0
 11
0.1336719970703125
 21
0.1283529052734375
 31
0.0
  0
LINE
  5
25B
330
90
100
AcDbEntity
  8
STANDARD
  6
AUSGEZOGEN
 62
     7
440
 33554687
370
    25
100
AcDbLine
 10
0.1332220458984375
 20
0.1288028564453125
 30
0.0
 11
0.1332220458984375
 21
0.1288028564453125
 31
0.0
  0
LINE
  5
25C
330
90
100
AcDbEntity
  8
STANDARD
  6
AUSGEZOGEN
 62
     7
440
 33554687
370
    25
100
AcDbLine
 10
0.1341220703125
 20
0.1288028564453125
 30
0.0
 11
0.1341220703125
 21
0.1288028564453125
 31
0.0
  0
CIRCLE
  5
25D
330
90
100
AcDbEntity
  8
STANDARD
  6
AUSGEZOGEN
 62
     7
440
 33554687
370
    25
100
AcDbCircle
 10
0.1336719970703125
 20
0.1288028564453125
 30
0.0
 40
0.0004500000039116
  0
HATCH
  5
25E
330
90
100
AcDbEntity
  8
STANDARD
  6
AUSGEZOGEN
 62
     7
440
 33554687
370
    25
100
AcDbHatch
 10
0.0
 20
0.0
 30
0.0
210
0.0
220
0.0
230
1.0
  2
SOLID
 70
     1
 71
     0
 91
        1
 92
        3
 72
     0
 73
     1
 93
        3
 10
0.13389697265625
 20
0.1284158325195313
 10
0.133447021484375
 20
0.1284158325195313
 10
0.1336719970703125
 20
0.1283529052734375
 97
        0
 75
     0
 76
     1
 98
        0
  0
HATCH
  5
25F
330
90
100
AcDbEntity
  8
STANDARD
  6
AUSGEZOGEN
 62
     7
440
 33554687
370
    25
100
AcDbHatch
 10
0.0
 20
0.0
 30
0.0
210
0.0
220
0.0
230
1.0
  2
SOLID
 70
     1
 71
     0
 91
        1
 92
        3
 72
     0
 73
     1
 93
        3
 10
0.133447021484375
 20
0.1284158325195313
 10
0.13389697265625
 20
0.1284158325195313
 10
0.1340589599609375
 20
0.128577880859375
 97
        0
 75
     0
 76
     1
 98
        0
  0
HATCH
  5
260
330
90
100
AcDbEntity
  8
STANDARD
  6
AUSGEZOGEN
 62
     7
440
 33554687
370
    25
100
AcDbHatch
 10
0.0
 20
0.0
 30
0.0
210
0.0
220
0.0
230
1.0
  2
SOLID
 70
     1
 71
     0
 91
        1
 92
        3
 72
     0
 73
     1
 93
        3
 10
0.133447021484375
 20
0.1284158325195313
 10
0.1340589599609375
 20
0.128577880859375
 10
0.1332850341796875
 20
0.128577880859375
 97
        0
 75
     0
 76
     1
 98
        0
  0
HATCH
  5
261
330
90
100
AcDbEntity
  8
STANDARD
  6
AUSGEZOGEN
 62
     7
440
 33554687
370
    25
100
AcDbHatch
 10
0.0
 20
0.0
 30
0.0
210
0.0
220
0.0
230
1.0
  2
SOLID
 70
     1
 71
     0
 91
        1
 92
        3
 72
     0
 73
     1
 93
        3
 10
0.1332850341796875
 20
0.128577880859375
 10
0.1340589599609375
 20
0.128577880859375
 10
0.1341220703125
 20
0.1288028564453125
 97
        0
 75
     0
 76
     1
 98
        0
  0
HATCH
  5
262
330
90
100
AcDbEntity
  8
STANDARD
  6
AUSGEZOGEN
 62
     7
440
 33554687
370
    25
100
AcDbHatch
 10
0.0
 20
0.0
 30
0.0
210
0.0
220
0.0
230
1.0
  2
SOLID
 70
     1
 71
     0
 91
        1
 92
        3
 72
     0
 73
     1
 93
        3
 10
0.1332850341796875
 20
0.128577880859375
 10
0.1341220703125
 20
0.1288028564453125
 10
0.1332220458984375
 20
0.1288028564453125
 97
        0
 75
     0
 76
     1
 98
        0
  0
HATCH
  5
263
330
90
100
AcDbEntity
  8
STANDARD
  6
AUSGEZOGEN
 62
     7
440
 33554687
370
    25
100
AcDbHatch
 10
0.0
 20
0.0
 30
0.0
210
0.0
220
0.0
230
1.0
  2
SOLID
 70
     1
 71
     0
 91
        1
 92
        3
 72
     0
 73
     1
 93
        3
 10
0.1332220458984375
 20
0.1288028564453125
 10
0.1341220703125
 20
0.1288028564453125
 10
0.1340589599609375
 20
0.1290278930664062
 97
        0
 75
     0
 76
     1
 98
        0
  0
HATCH
  5
264
330
90
100
AcDbEntity
  8
STANDARD
  6
AUSGEZOGEN
 62
     7
440
 33554687
370
    25
100
AcDbHatch
 10
0.0
 20
0.0
 30
0.0
210
0.0
220
0.0
230
1.0
  2
SOLID
 70
     1
 71
     0
 91
        1
 92
        3
 72
     0
 73
     1
 93
        3
 10
0.1332220458984375
 20
0.1288028564453125
 10
0.1340589599609375
 20
0.1290278930664062
 10
0.1332850341796875
 20
0.1290278930664062
 97
        0
 75
     0
 76
     1
 98
        0
  0
HATCH
  5
265
330
90
100
AcDbEntity
  8
STANDARD
  6
AUSGEZOGEN
 62
     7
440
 33554687
370
    25
100
AcDbHatch
 10
0.0
 20
0.0
 30
0.0
210
0.0
220
0.0
230
1.0
  2
SOLID
 70
     1
 71
     0
 91
        1
 92
        3
 72
     0
 73
     1
 93
        3
 10
0.1332850341796875
 20
0.1290278930664062
 10
0.1340589599609375
 20
0.1290278930664062
 10
0.13389697265625
 20
0.1291898803710937
 97
        0
 75
     0
 76
     1
 98
        0
  0
HATCH
  5
266
330
90
100
AcDbEntity
  8
STANDARD
  6
AUSGEZOGEN
 62
     7
440
 33554687
370
    25
100
AcDbHatch
 10
0.0
 20
0.0
 30
0.0
210
0.0
220
0.0
230
1.0
  2
SOLID
 70
     1
 71
     0
 91
        1
 92
        3
 72
     0
 73
     1
 93
        3
 10
0.1332850341796875
 20
0.1290278930664062
 10
0.13389697265625
 20
0.1291898803710937
 10
0.133447021484375
 20
0.1291898803710937
 97
        0
 75
     0
 76
     1
 98
        0
  0
HATCH
  5
267
330
90
100
AcDbEntity
  8
STANDARD
  6
AUSGEZOGEN
 62
     7
440
 33554687
370
    25
100
AcDbHatch
 10
0.0
 20
0.0
 30
0.0
210
0.0
220
0.0
230
1.0
  2
SOLID
 70
     1
 71
     0
 91
        1
 92
        3
 72
     0
 73
     1
 93
        3
 10
0.133447021484375
 20
0.1291898803710937
 10
0.13389697265625
 20
0.1291898803710937
 10
0.1336719970703125
 20
0.1292528686523438
 97
        0
 75
     0
 76
     1
 98
        0
  0
LINE
  5
268
330
90
100
AcDbEntity
  8
STANDARD
  6
AUSGEZOGEN
 62
     7
440
 33554687
370
    25
100
AcDbLine
 10
0.0871139526367188
 20
0.129101806640625
 30
0.0
 11
0.0735884399414063
 21
0.1155763549804688
 31
0.0
  0
LINE
  5
269
330
90
100
AcDbEntity
  8
STANDARD
  6
AUSGEZOGEN
 62
     7
440
 33554687
370
    25
100
AcDbLine
 10
0.0635904541015625
 20
0.1157763061523438
 30
0.0
 11
0.045943359375
 21
0.0981292114257813
 31
0.0
  0
LINE
  5
26A
330
90
100
AcDbEntity
  8
STANDARD
  6
AUSGEZOGEN
 62
     7
440
 33554687
370
    25
100
AcDbLine
 10
0.0359453735351562
 20
0.0983291625976563
 30
0.0
 11
0.0320238037109375
 21
0.0944075927734375
 31
0.0
  0
LINE
  5
26B
330
90
100
AcDbEntity
  8
STANDARD
  6
AUSGEZOGEN
 62
     7
440
 33554687
370
    25
100
AcDbLine
 10
0.0973119506835937
 20
0.129101806640625
 30
0.0
 11
0.1934616088867188
 21
0.1271788940429688
 31
0.0
  0
LINE
  5
26C
330
90
100
AcDbEntity
  8
STANDARD
  6
AUSGEZOGEN
 62
     7
440
 33554687
370
    13
100
AcDbLine
 10
0.1383119506835938
 20
0.1342818603515625
 30
0.0
 11
0.1383119506835938
 21
0.1282817993164063
 31
0.0
  0
LINE
  5
26D
330
90
100
AcDbEntity
  8
STANDARD
  6
AUSGEZOGEN
 62
     7
440
 33554687
370
    25
100
AcDbLine
 10
0.1373119506835938
 20
0.1815859375
 30
0.0
 11
0.1113119506835938
 21
0.1815859375
 31
0.0
  0
LINE
  5
26E
330
90
100
AcDbEntity
  8
STANDARD
  6
AUSGEZOGEN
 62
     7
440
 33554687
370
    25
100
AcDbLine
 10
0.134511962890625
 20
0.1815859375
 30
0.0
 11
0.1343119506835938
 21
0.1815859375
 31
0.0
  0
LINE
  5
26F
330
90
100
AcDbEntity
  8
STANDARD
  6
AUSGEZOGEN
 62
     7
440
 33554687
370
    25
100
AcDbLine
 10
0.1373119506835938
 20
0.1815859375
 30
0.0
 11
0.1373119506835938
 21
0.1815859375
 31
0.0
  0
LINE
  5
270
330
90
100
AcDbEntity
  8
STANDARD
  6
AUSGEZOGEN
 62
     7
440
 33554687
370
    25
100
AcDbLine
 10
0.1373119506835938
 20
0.1815859375
 30
0.0
 11
0.1373119506835938
 21
0.1815859375
 31
0.0
  0
LINE
  5
271
330
90
100
AcDbEntity
  8
STANDARD
  6
AUSGEZOGEN
 62
     7
440
 33554687
370
    25
100
AcDbLine
 10
0.1373119506835938
 20
0.1815859375
 30
0.0
 11
0.1373119506835938
 21
0.1815859375
 31
0.0
  0
LINE
  5
272
330
90
100
AcDbEntity
  8
STANDARD
  6
AUSGEZOGEN
 62
     7
440
 33554687
370
    25
100
AcDbLine
 10
0.1373119506835938
 20
0.1815859375
 30
0.0
 11
0.134511962890625
 21
0.1811859130859375
 31
0.0
  0
LINE
  5
273
330
90
100
AcDbEntity
  8
STANDARD
  6
AUSGEZOGEN
 62
     7
440
 33554687
370
    25
100
AcDbLine
 10
0.134511962890625
 20
0.1811859130859375
 30
0.0
 11
0.134511962890625
 21
0.1819859008789063
 31
0.0
  0
LINE
  5
274
330
90
100
AcDbEntity
  8
STANDARD
  6
AUSGEZOGEN
 62
     7
440
 33554687
370
    25
100
AcDbLine
 10
0.134511962890625
 20
0.1819859008789063
 30
0.0
 11
0.1373119506835938
 21
0.1815859375
 31
0.0
  0
HATCH
  5
275
330
90
100
AcDbEntity
  8
STANDARD
  6
AUSGEZOGEN
 62
     7
440
 33554687
370
    25
100
AcDbHatch
 10
0.0
 20
0.0
 30
0.0
210
0.0
220
0.0
230
1.0
  2
SOLID
 70
     1
 71
     0
 91
        1
 92
        3
 72
     0
 73
     1
 93
        3
 10
0.134511962890625
 20
0.1819859008789063
 10
0.134511962890625
 20
0.1811859130859375
 10
0.1373119506835938
 20
0.1815859375
 97
        0
 75
     0
 76
     1
 98
        0
  0
LINE
  5
276
330
90
100
AcDbEntity
  8
STANDARD
  6
AUSGEZOGEN
 62
     7
440
 33554687
370
    25
100
AcDbLine
 10
0.1373119506835938
 20
0.1815859375
 30
0.0
 11
0.1633119506835937
 21
0.1815859375
 31
0.0
  0
LINE
  5
277
330
90
100
AcDbEntity
  8
STANDARD
  6
AUSGEZOGEN
 62
     7
440
 33554687
370
    25
100
AcDbLine
 10
0.1401119384765625
 20
0.1815859375
 30
0.0
 11
0.1403119506835938
 21
0.1815859375
 31
0.0
  0
LINE
  5
278
330
90
100
AcDbEntity
  8
STANDARD
  6
AUSGEZOGEN
 62
     7
440
 33554687
370
    25
100
AcDbLine
 10
0.1373119506835938
 20
0.1815859375
 30
0.0
 11
0.1373119506835938
 21
0.1815859375
 31
0.0
  0
LINE
  5
279
330
90
100
AcDbEntity
  8
STANDARD
  6
AUSGEZOGEN
 62
     7
440
 33554687
370
    25
100
AcDbLine
 10
0.1373119506835938
 20
0.1815859375
 30
0.0
 11
0.1373119506835938
 21
0.1815859375
 31
0.0
  0
LINE
  5
27A
330
90
100
AcDbEntity
  8
STANDARD
  6
AUSGEZOGEN
 62
     7
440
 33554687
370
    25
100
AcDbLine
 10
0.1373119506835938
 20
0.1815859375
 30
0.0
 11
0.1373119506835938
 21
0.1815859375
 31
0.0
  0
LINE
  5
27B
330
90
100
AcDbEntity
  8
STANDARD
  6
AUSGEZOGEN
 62
     7
440
 33554687
370
    25
100
AcDbLine
 10
0.1373119506835938
 20
0.1815859375
 30
0.0
 11
0.1401119384765625
 21
0.1819859008789063
 31
0.0
  0
LINE
  5
27C
330
90
100
AcDbEntity
  8
STANDARD
  6
AUSGEZOGEN
 62
     7
440
 33554687
370
    25
100
AcDbLine
 10
0.1401119384765625
 20
0.1819859008789063
 30
0.0
 11
0.1401119384765625
 21
0.1811859130859375
 31
0.0
  0
LINE
  5
27D
330
90
100
AcDbEntity
  8
STANDARD
  6
AUSGEZOGEN
 62
     7
440
 33554687
370
    25
100
AcDbLine
 10
0.1401119384765625
 20
0.1811859130859375
 30
0.0
 11
0.1373119506835938
 21
0.1815859375
 31
0.0
  0
HATCH
  5
27E
330
90
100
AcDbEntity
  8
STANDARD
  6
AUSGEZOGEN
 62
     7
440
 33554687
370
    25
100
AcDbHatch
 10
0.0
 20
0.0
 30
0.0
210
0.0
220
0.0
230
1.0
  2
SOLID
 70
     1
 71
     0
 91
        1
 92
        3
 72
     0
 73
     1
 93
        3
 10
0.1401119384765625
 20
0.1811859130859375
 10
0.1401119384765625
 20
0.1819859008789063
 10
0.1373119506835938
 20
0.1815859375
 97
        0
 75
     0
 76
     1
 98
        0
  0
LINE
  5
27F
330
90
100
AcDbEntity
  8
STANDARD
  6
VERDECKT2_S2
 62
     7
440
 33554687
370
    13
100
AcDbLine
 10
0.1373119506835938
 20
0.1663018188476562
 30
0.0
 11
0.1373119506835938
 21
0.1543018188476563
 31
0.0
  0
LINE
  5
280
330
90
100
AcDbEntity
  8
STANDARD
  6
AUSGEZOGEN
 62
     7
440
 33554687
370
    70
100
AcDbLine
 10
0.1173119506835937
 20
0.1543018188476563
 30
0.0
 11
0.1373119506835938
 21
0.1543018188476563
 31
0.0
  0
LINE
  5
281
330
90
100
AcDbEntity
  8
STANDARD
  6
AUSGEZOGEN
 62
     7
440
 33554687
370
    70
100
AcDbLine
 10
0.1373119506835938
 20
0.1543018188476563
 30
0.0
 11
0.1373119506835938
 21
0.1293018188476563
 31
0.0
  0
LINE
  5
282
330
90
100
AcDbEntity
  8
STANDARD
  6
AUSGEZOGEN
 62
     7
440
 33554687
370
    70
100
AcDbLine
 10
0.1173119506835937
 20
0.1503018188476563
 30
0.0
 11
0.1173119506835937
 21
0.1543018188476563
 31
0.0
  0
LINE
  5
283
330
90
100
AcDbEntity
  8
PROJEKT
  6
AUSGEZOGEN
 62
     7
440
 33554687
370
    35
100
AcDbLine
 10
0.1173119506835937
 20
0.1503018188476563
 30
0.0
 11
0.1177738037109375
 21
0.1439463500976562
 31
0.0
  0
LINE
  5
284
330
90
100
AcDbEntity
  8
PROJEKT
  6
AUSGEZOGEN
 62
     7
440
 33554687
370
    35
100
AcDbLine
 10
0.1177738037109375
 20
0.1439463500976562
 30
0.0
 11
0.1171621704101563
 21
0.1386461791992188
 31
0.0
  0
LINE
  5
285
330
90
100
AcDbEntity
  8
PROJEKT
  6
AUSGEZOGEN
 62
     7
440
 33554687
370
    35
100
AcDbLine
 10
0.1171621704101563
 20
0.1386461791992188
 30
0.0
 11
0.1173119506835937
 21
0.1315518188476563
 31
0.0
  0
LINE
  5
286
330
90
100
AcDbEntity
  8
PROJEKT
  6
AUSGEZOGEN
 62
     7
440
 33554687
370
    35
100
AcDbLine
 10
0.1173488159179688
 20
0.1293018188476563
 30
0.0
 11
0.1231107788085938
 21
0.129591064453125
 31
0.0
  0
LINE
  5
287
330
90
100
AcDbEntity
  8
PROJEKT
  6
AUSGEZOGEN
 62
     7
440
 33554687
370
    35
100
AcDbLine
 10
0.1231107788085938
 20
0.129591064453125
 30
0.0
 11
0.1317744140625
 21
0.1288776245117187
 31
0.0
  0
LINE
  5
288
330
90
100
AcDbEntity
  8
PROJEKT
  6
AUSGEZOGEN
 62
     7
440
 33554687
370
    35
100
AcDbLine
 10
0.1317744140625
 20
0.1288776245117187
 30
0.0
 11
0.1373119506835938
 21
0.1293455810546875
 31
0.0
  0
LINE
  5
289
330
90
100
AcDbEntity
  8
PROJEKT
  6
AUSGEZOGEN
 62
     7
440
 33554687
370
    35
100
AcDbLine
 10
0.1173488159179688
 20
0.1293018188476563
 30
0.0
 11
0.1173119506835937
 21
0.1315518188476563
 31
0.0
  0
LINE
  5
28A
330
90
100
AcDbEntity
  8
STANDARD
  6
AUSGEZOGEN
 62
     7
440
 33554687
370
    25
100
AcDbLine
 10
0.1373119506835938
 20
0.1293018188476563
 30
0.0
 11
0.1373119506835938
 21
0.1283018188476563
 31
0.0
  0
LINE
  5
28B
330
90
100
AcDbEntity
  8
STANDARD
  6
AUSGEZOGEN
 62
     7
440
 33554687
370
    25
100
AcDbLine
 10
0.1173119506835937
 20
0.1293018188476563
 30
0.0
 11
0.1173119506835937
 21
0.1287018432617187
 31
0.0
  0
LINE
  5
28C
330
90
100
AcDbEntity
  8
STANDARD
  6
AUSGEZOGEN
 62
     7
440
 33554687
370
    25
100
AcDbLine
 10
0.1456719970703125
 20
0.1185653076171875
 30
0.0
 11
0.1336719970703125
 21
0.1185653076171875
 31
0.0
  0
LINE
  5
28D
330
90
100
AcDbEntity
  8
STANDARD
  6
AUSGEZOGEN
 62
     7
440
 33554687
370
    25
100
AcDbLine
 10
0.14306689453125
 20
0.1245423583984375
 30
0.0
 11
0.1451934814453125
 21
0.1245423583984375
 31
0.0
  0
LINE
  5
28E
330
90
100
AcDbEntity
  8
STANDARD
  6
AUSGEZOGEN
 62
     7
440
 33554687
370
    25
100
AcDbLine
 10
0.14306689453125
 20
0.1330462646484375
 30
0.0
 11
0.1373119506835938
 21
0.1330462646484375
 31
0.0
  0
LINE
  5
28F
330
90
100
AcDbEntity
  8
STANDARD
  6
AUSGEZOGEN
 62
     7
440
 33554687
370
    25
100
AcDbLine
 10
0.1401119384765625
 20
0.1330462646484375
 30
0.0
 11
0.1403119506835938
 21
0.1330462646484375
 31
0.0
  0
LINE
  5
290
330
90
100
AcDbEntity
  8
STANDARD
  6
AUSGEZOGEN
 62
     7
440
 33554687
370
    25
100
AcDbLine
 10
0.1373119506835938
 20
0.1330462646484375
 30
0.0
 11
0.1373119506835938
 21
0.1330462646484375
 31
0.0
  0
LINE
  5
291
330
90
100
AcDbEntity
  8
STANDARD
  6
AUSGEZOGEN
 62
     7
440
 33554687
370
    25
100
AcDbLine
 10
0.1373119506835938
 20
0.1330462646484375
 30
0.0
 11
0.1373119506835938
 21
0.1330462646484375
 31
0.0
  0
LINE
  5
292
330
90
100
AcDbEntity
  8
STANDARD
  6
AUSGEZOGEN
 62
     7
440
 33554687
370
    25
100
AcDbLine
 10
0.1373119506835938
 20
0.1330462646484375
 30
0.0
 11
0.1373119506835938
 21
0.1330462646484375
 31
0.0
  0
LINE
  5
293
330
90
100
AcDbEntity
  8
STANDARD
  6
AUSGEZOGEN
 62
     7
440
 33554687
370
    25
100
AcDbLine
 10
0.1373119506835938
 20
0.1330462646484375
 30
0.0
 11
0.1401119384765625
 21
0.132646240234375
 31
0.0
  0
LINE
  5
294
330
90
100
AcDbEntity
  8
STANDARD
  6
AUSGEZOGEN
 62
     7
440
 33554687
370
    25
100
AcDbLine
 10
0.1401119384765625
 20
0.132646240234375
 30
0.0
 11
0.1401119384765625
 21
0.1334462280273438
 31
0.0
  0
LINE
  5
295
330
90
100
AcDbEntity
  8
STANDARD
  6
AUSGEZOGEN
 62
     7
440
 33554687
370
    25
100
AcDbLine
 10
0.1401119384765625
 20
0.1334462280273438
 30
0.0
 11
0.1373119506835938
 21
0.1330462646484375
 31
0.0
  0
HATCH
  5
296
330
90
100
AcDbEntity
  8
STANDARD
  6
AUSGEZOGEN
 62
     7
440
 33554687
370
    25
100
AcDbHatch
 10
0.0
 20
0.0
 30
0.0
210
0.0
220
0.0
230
1.0
  2
SOLID
 70
     1
 71
     0
 91
        1
 92
        3
 72
     0
 73
     1
 93
        3
 10
0.1401119384765625
 20
0.1334462280273438
 10
0.1373119506835938
 20
0.1330462646484375
 10
0.1401119384765625
 20
0.132646240234375
 97
        0
 75
     0
 76
     1
 98
        0
  0
LINE
  5
297
330
90
100
AcDbEntity
  8
STANDARD
  6
AUSGEZOGEN
 62
     7
440
 33554687
370
    25
100
AcDbLine
 10
0.14306689453125
 20
0.1330462646484375
 30
0.0
 11
0.14306689453125
 21
0.1245423583984375
 31
0.0
  0
MTEXT
  5
298
330
90
100
AcDbEntity
  8
STANDARD
  6
AUSGEZOGEN
 62
     7
440
 33554687
370
    25
100
AcDbMText
 10
0.1113119506835938
 20
0.1825025634765625
 30
0.0
 40
0.0025
 41
0.0228783325605657
 71
     7
 72
     5
  1
\W1.00;Insel, Rabatte
  7
ARIAL
 73
     1
 44
1.0
  0
MTEXT
  5
299
330
90
100
AcDbEntity
  8
STANDARD
  6
AUSGEZOGEN
 62
     7
440
 33554687
370
    25
100
AcDbMText
 10
0.1714967651367187
 20
0.1292212524414063
 30
0.0
 40
0.002
 41
0.0161370031392315
 71
     7
 72
     5
  1
\W1.00;Deckschicht
  7
ARIAL
 73
     1
 44
1.0
  0
MTEXT
  5
29A
330
90
100
AcDbEntity
  8
STANDARD
  6
AUSGEZOGEN
 62
     7
440
 33554687
370
    25
100
AcDbMText
 10
0.148270263671875
 20
0.1825025634765625
 30
0.0
 40
0.0025
 41
0.0162974411420938
 71
     7
 72
     5
  1
\W1.00;Fahrbahn
  7
ARIAL
 73
     1
 44
1.0
  0
LINE
  5
29B
330
90
100
AcDbEntity
  8
STANDARD
  6
AUSGEZOGEN
 62
     7
440
 33554687
370
    25
100
AcDbLine
 10
0.0964119262695313
 20
0.1599872436523438
 30
0.0
 11
0.0982119140625
 21
0.1617872314453125
 31
0.0
  0
LINE
  5
29C
330
90
100
AcDbEntity
  8
STANDARD
  6
AUSGEZOGEN
 62
     7
440
 33554687
370
    25
100
AcDbLine
 10
0.1164119262695313
 20
0.1599872436523438
 30
0.0
 11
0.1182119140625
 21
0.1617872314453125
 31
0.0
  0
LINE
  5
29D
330
90
100
AcDbEntity
  8
STANDARD
  6
AUSGEZOGEN
 62
     7
440
 33554687
370
    25
100
AcDbLine
 10
0.0973119506835937
 20
0.16088720703125
 30
0.0
 11
0.0973119506835937
 21
0.1623871459960937
 31
0.0
  0
LINE
  5
29E
330
90
100
AcDbEntity
  8
STANDARD
  6
AUSGEZOGEN
 62
     7
440
 33554687
370
    25
100
AcDbLine
 10
0.0973119506835937
 20
0.16088720703125
 30
0.0
 11
0.0973119506835937
 21
0.1593871459960937
 31
0.0
  0
LINE
  5
29F
330
90
100
AcDbEntity
  8
STANDARD
  6
AUSGEZOGEN
 62
     7
440
 33554687
370
    25
100
AcDbLine
 10
0.1173119506835937
 20
0.16088720703125
 30
0.0
 11
0.1173119506835937
 21
0.1623871459960937
 31
0.0
  0
LINE
  5
2A0
330
90
100
AcDbEntity
  8
STANDARD
  6
AUSGEZOGEN
 62
     7
440
 33554687
370
    25
100
AcDbLine
 10
0.1173119506835937
 20
0.16088720703125
 30
0.0
 11
0.1173119506835937
 21
0.1593871459960937
 31
0.0
  0
LINE
  5
2A1
330
90
100
AcDbEntity
  8
STANDARD
  6
AUSGEZOGEN
 62
     7
440
 33554687
370
    25
100
AcDbLine
 10
0.0973119506835937
 20
0.16088720703125
 30
0.0
 11
0.0973119506835937
 21
0.15288720703125
 31
0.0
  0
LINE
  5
2A2
330
90
100
AcDbEntity
  8
STANDARD
  6
AUSGEZOGEN
 62
     7
440
 33554687
370
    25
100
AcDbLine
 10
0.1173119506835937
 20
0.16088720703125
 30
0.0
 11
0.1173119506835937
 21
0.15688720703125
 31
0.0
  0
LINE
  5
2A3
330
90
100
AcDbEntity
  8
STANDARD
  6
AUSGEZOGEN
 62
     7
440
 33554687
370
    25
100
AcDbLine
 10
0.0973119506835937
 20
0.16088720703125
 30
0.0
 11
0.0958118896484375
 21
0.16088720703125
 31
0.0
  0
LINE
  5
2A4
330
90
100
AcDbEntity
  8
STANDARD
  6
AUSGEZOGEN
 62
     7
440
 33554687
370
    25
100
AcDbLine
 10
0.1173119506835937
 20
0.16088720703125
 30
0.0
 11
0.1188118896484375
 21
0.16088720703125
 31
0.0
  0
MTEXT
  5
2A5
330
90
100
AcDbEntity
  8
STANDARD
  6
AUSGEZOGEN
 62
     7
440
 33554687
370
    25
100
AcDbMText
 10
0.1058248901367188
 20
0.1619213256835937
 30
0.0
 40
0.002
 41
0.0040862935928629
 71
     7
 72
     5
  1
\W0.95;10
  7
ARIAL
 73
     1
 44
1.0
  0
LINE
  5
2A6
330
90
100
AcDbEntity
  8
STANDARD
  6
AUSGEZOGEN
 62
     7
440
 33554687
370
    25
100
AcDbLine
 10
0.0973119506835937
 20
0.16088720703125
 30
0.0
 11
0.1173119506835937
 21
0.16088720703125
 31
0.0
  0
LINE
  5
2A7
330
90
100
AcDbEntity
  8
STANDARD
  6
AUSGEZOGEN
 62
     7
440
 33554687
370
    25
100
AcDbLine
 10
0.1107275390625
 20
0.1494017944335937
 30
0.0
 11
0.1089275512695313
 21
0.1512017822265625
 31
0.0
  0
LINE
  5
2A8
330
90
100
AcDbEntity
  8
STANDARD
  6
AUSGEZOGEN
 62
     7
440
 33554687
370
    25
100
AcDbLine
 10
0.1107275390625
 20
0.1534017944335938
 30
0.0
 11
0.1089275512695313
 21
0.1552017822265625
 31
0.0
  0
LINE
  5
2A9
330
90
100
AcDbEntity
  8
STANDARD
  6
AUSGEZOGEN
 62
     7
440
 33554687
370
    25
100
AcDbLine
 10
0.1098275146484375
 20
0.1503018188476563
 30
0.0
 11
0.1083274536132812
 21
0.1503018188476563
 31
0.0
  0
LINE
  5
2AA
330
90
100
AcDbEntity
  8
STANDARD
  6
AUSGEZOGEN
 62
     7
440
 33554687
370
    25
100
AcDbLine
 10
0.1098275146484375
 20
0.1503018188476563
 30
0.0
 11
0.1113274536132813
 21
0.1503018188476563
 31
0.0
  0
LINE
  5
2AB
330
90
100
AcDbEntity
  8
STANDARD
  6
AUSGEZOGEN
 62
     7
440
 33554687
370
    25
100
AcDbLine
 10
0.1098275146484375
 20
0.1543018188476563
 30
0.0
 11
0.1083274536132812
 21
0.1543018188476563
 31
0.0
  0
LINE
  5
2AC
330
90
100
AcDbEntity
  8
STANDARD
  6
AUSGEZOGEN
 62
     7
440
 33554687
370
    25
100
AcDbLine
 10
0.1098275146484375
 20
0.1543018188476563
 30
0.0
 11
0.1113274536132813
 21
0.1543018188476563
 31
0.0
  0
LINE
  5
2AD
330
90
100
AcDbEntity
  8
STANDARD
  6
AUSGEZOGEN
 62
     7
440
 33554687
370
    25
100
AcDbLine
 10
0.1098275146484375
 20
0.1503018188476563
 30
0.0
 11
0.1098275146484375
 21
0.1503018188476563
 31
0.0
  0
LINE
  5
2AE
330
90
100
AcDbEntity
  8
STANDARD
  6
AUSGEZOGEN
 62
     7
440
 33554687
370
    25
100
AcDbLine
 10
0.1098275146484375
 20
0.1543018188476563
 30
0.0
 11
0.1114676006188204
 21
0.1543018188476563
 31
0.0
  0
LINE
  5
2AF
330
90
100
AcDbEntity
  8
STANDARD
  6
AUSGEZOGEN
 62
     7
440
 33554687
370
    25
100
AcDbLine
 10
0.1114676006188204
 20
0.1543018188476563
 30
0.0
 11
0.1114676006188204
 21
0.1543018188476563
 31
0.0
  0
LINE
  5
2B0
330
90
100
AcDbEntity
  8
STANDARD
  6
AUSGEZOGEN
 62
     7
440
 33554687
370
    25
100
AcDbLine
 10
0.1114676006188204
 20
0.1543018188476563
 30
0.0
 11
0.1138275146484375
 21
0.1543018188476563
 31
0.0
  0
LINE
  5
2B1
330
90
100
AcDbEntity
  8
STANDARD
  6
AUSGEZOGEN
 62
     7
440
 33554687
370
    25
100
AcDbLine
 10
0.1098275146484375
 20
0.1503018188476563
 30
0.0
 11
0.1098275146484375
 21
0.1488018798828125
 31
0.0
  0
LINE
  5
2B2
330
90
100
AcDbEntity
  8
STANDARD
  6
AUSGEZOGEN
 62
     7
440
 33554687
370
    25
100
AcDbLine
 10
0.1098275146484375
 20
0.1543018188476563
 30
0.0
 11
0.1098275146484375
 21
0.1558018798828125
 31
0.0
  0
MTEXT
  5
2B3
330
90
100
AcDbEntity
  8
STANDARD
  6
AUSGEZOGEN
 62
     7
440
 33554687
370
    25
100
AcDbMText
 10
0.1088275146484375
 20
0.1515985717773438
 30
0.0
 40
0.002
 41
0.0025569742941424
 71
     7
 72
     5
  1
\W0.99;2
  7
ARIAL
 11
-4.371139000186241E-8
 21
0.9999999999999989
 31
0.0
 73
     1
 44
1.0
  0
LINE
  5
2B4
330
90
100
AcDbEntity
  8
STANDARD
  6
AUSGEZOGEN
 62
     7
440
 33554687
370
    25
100
AcDbLine
 10
0.1098275146484375
 20
0.1503018188476563
 30
0.0
 11
0.1098275146484375
 21
0.1517567557744132
 31
0.0
  0
LINE
  5
2B5
330
90
100
AcDbEntity
  8
STANDARD
  6
AUSGEZOGEN
 62
     7
440
 33554687
370
    25
100
AcDbLine
 10
0.1098275146484375
 20
0.1517567557744132
 30
0.0
 11
0.1098275146484375
 21
0.1517567557744132
 31
0.0
  0
LINE
  5
2B6
330
90
100
AcDbEntity
  8
STANDARD
  6
AUSGEZOGEN
 62
     7
440
 33554687
370
    25
100
AcDbLine
 10
0.1098275146484375
 20
0.1517567557744132
 30
0.0
 11
0.1098275146484375
 21
0.1543018188476563
 31
0.0
  0
LINE
  5
2B7
330
90
100
AcDbEntity
  8
STANDARD
  6
AUSGEZOGEN
 62
     7
440
 33554687
370
    25
100
AcDbLine
 10
0.1522119140625
 20
0.1334017944335938
 30
0.0
 11
0.1504119262695313
 21
0.1352017822265625
 31
0.0
  0
LINE
  5
2B8
330
90
100
AcDbEntity
  8
STANDARD
  6
AUSGEZOGEN
 62
     7
440
 33554687
370
    25
100
AcDbLine
 10
0.1522119140625
 20
0.1534017944335938
 30
0.0
 11
0.1504119262695313
 21
0.1552017822265625
 31
0.0
  0
LINE
  5
2B9
330
90
100
AcDbEntity
  8
STANDARD
  6
AUSGEZOGEN
 62
     7
440
 33554687
370
    25
100
AcDbLine
 10
0.1513119506835938
 20
0.1343018188476562
 30
0.0
 11
0.1498118896484375
 21
0.1343018188476562
 31
0.0
  0
LINE
  5
2BA
330
90
100
AcDbEntity
  8
STANDARD
  6
AUSGEZOGEN
 62
     7
440
 33554687
370
    25
100
AcDbLine
 10
0.1513119506835938
 20
0.1343018188476562
 30
0.0
 11
0.1528118896484375
 21
0.1343018188476562
 31
0.0
  0
LINE
  5
2BB
330
90
100
AcDbEntity
  8
STANDARD
  6
AUSGEZOGEN
 62
     7
440
 33554687
370
    25
100
AcDbLine
 10
0.1513119506835938
 20
0.1543018188476563
 30
0.0
 11
0.1498118896484375
 21
0.1543018188476563
 31
0.0
  0
LINE
  5
2BC
330
90
100
AcDbEntity
  8
STANDARD
  6
AUSGEZOGEN
 62
     7
440
 33554687
370
    25
100
AcDbLine
 10
0.1513119506835938
 20
0.1543018188476563
 30
0.0
 11
0.1528118896484375
 21
0.1543018188476563
 31
0.0
  0
LINE
  5
2BD
330
90
100
AcDbEntity
  8
STANDARD
  6
AUSGEZOGEN
 62
     7
440
 33554687
370
    25
100
AcDbLine
 10
0.1513119506835938
 20
0.1343018188476562
 30
0.0
 11
0.1423119506835938
 21
0.1343018188476562
 31
0.0
  0
LINE
  5
2BE
330
90
100
AcDbEntity
  8
STANDARD
  6
AUSGEZOGEN
 62
     7
440
 33554687
370
    25
100
AcDbLine
 10
0.1513119506835938
 20
0.1543018188476563
 30
0.0
 11
0.1423119506835938
 21
0.1543018188476563
 31
0.0
  0
LINE
  5
2BF
330
90
100
AcDbEntity
  8
STANDARD
  6
AUSGEZOGEN
 62
     7
440
 33554687
370
    25
100
AcDbLine
 10
0.1513119506835938
 20
0.1343018188476562
 30
0.0
 11
0.1513119506835938
 21
0.1328018798828125
 31
0.0
  0
LINE
  5
2C0
330
90
100
AcDbEntity
  8
STANDARD
  6
AUSGEZOGEN
 62
     7
440
 33554687
370
    25
100
AcDbLine
 10
0.1513119506835938
 20
0.1543018188476563
 30
0.0
 11
0.1513119506835938
 21
0.1558018798828125
 31
0.0
  0
MTEXT
  5
2C1
330
90
100
AcDbEntity
  8
STANDARD
  6
AUSGEZOGEN
 62
     7
440
 33554687
370
    25
100
AcDbMText
 10
0.1502842407226563
 20
0.1428148193359375
 30
0.0
 40
0.002
 41
0.004086293592863
 71
     7
 72
     5
  1
\W0.95;10
  7
ARIAL
 11
-4.371139000186241E-8
 21
0.9999999999999989
 31
0.0
 73
     1
 44
1.0
  0
LINE
  5
2C2
330
90
100
AcDbEntity
  8
STANDARD
  6
AUSGEZOGEN
 62
     7
440
 33554687
370
    25
100
AcDbLine
 10
0.1513119506835938
 20
0.1343018188476562
 30
0.0
 11
0.1513119506835938
 21
0.1436129597062617
 31
0.0
  0
LINE
  5
2C3
330
90
100
AcDbEntity
  8
STANDARD
  6
AUSGEZOGEN
 62
     7
440
 33554687
370
    25
100
AcDbLine
 10
0.1513119506835938
 20
0.1436129597062617
 30
0.0
 11
0.1513119506835938
 21
0.1436129597062617
 31
0.0
  0
LINE
  5
2C4
330
90
100
AcDbEntity
  8
STANDARD
  6
AUSGEZOGEN
 62
     7
440
 33554687
370
    25
100
AcDbLine
 10
0.1513119506835938
 20
0.1436129597062617
 30
0.0
 11
0.1513119506835938
 21
0.1543018188476563
 31
0.0
  0
MTEXT
  5
2C5
330
90
100
AcDbEntity
  8
STANDARD
  6
AUSGEZOGEN
 62
     7
440
 33554687
370
    25
100
AcDbMText
 10
0.0520209350585938
 20
0.1390225830078125
 30
0.0
 40
0.002
 41
0.0184700367647059
 71
     7
 72
     5
  1
\W1.00;Schotterrasen
  7
ARIAL
 73
     1
 44
1.0
  0
MTEXT
  5
2C6
330
90
100
AcDbEntity
  8
STANDARD
  6
AUSGEZOGEN
 62
     7
440
 33554687
370
    25
100
AcDbMText
 10
0.0520209350585938
 20
0.1230225830078125
 30
0.0
 40
0.002
 41
0.01350450016072
 71
     7
 72
     5
  1
\W1.00;Auffüllung
  7
ARIAL
 73
     1
 44
1.0
  0
MTEXT
  5
2C7
330
90
100
AcDbEntity
  8
STANDARD
  6
AUSGEZOGEN
 62
     7
440
 33554687
370
    25
100
AcDbMText
 10
0.0532861938476563
 20
0.1083152465820312
 30
0.0
 40
0.002
 41
0.0048246088193457
 71
     7
 72
     5
  1
\W0.92;1:1
  7
ARIAL
 11
0.7071067657322372
 21
0.7071067966408575
 31
0.0
 73
     1
 44
1.0
  0
MTEXT
  5
2C8
330
90
100
AcDbEntity
  8
STANDARD
  6
AUSGEZOGEN
 62
     7
440
 33554687
370
    25
100
AcDbMText
 10
0.0773255004882813
 20
0.12093896484375
 30
0.0
 40
0.002
 41
0.0048246088193457
 71
     7
 72
     5
  1
\W0.92;1:1
  7
ARIAL
 11
0.7071067657322372
 21
0.7071067966408575
 31
0.0
 73
     1
 44
1.0
  0
MTEXT
  5
2C9
330
90
100
AcDbEntity
  8
STANDARD
  6
AUSGEZOGEN
 62
     7
440
 33554687
370
    25
100
AcDbMText
 10
0.0315481567382812
 20
0.095828857421875
 30
0.0
 40
0.002
 41
0.0048246088193456
 71
     7
 72
     5
  1
\W0.92;1:1
  7
ARIAL
 11
0.7071067657322372
 21
0.7071067966408575
 31
0.0
 73
     1
 44
1.0
  0
MTEXT
  5
2CA
330
90
100
AcDbEntity
  8
STANDARD
  6
AUSGEZOGEN
 62
     7
440
 33554687
370
    25
100
AcDbMText
 10
0.1717347412109375
 20
0.1041527099609375
 30
0.0
 40
0.002
 41
0.0155029049661087
 71
     7
 72
     5
  1
\W1.00;Tragschicht
  7
ARIAL
 73
     1
 44
1.0
  0
MTEXT
  5
2CB
330
90
100
AcDbEntity
  8
STANDARD
  6
AUSGEZOGEN
 62
     7
440
 33554687
370
    25
100
AcDbMText
 10
0.17148974609375
 20
0.1201741943359375
 30
0.0
 40
0.002
 41
0.0178714722586282
 71
     7
 72
     5
  1
\W1.00;Binderschicht
  7
ARIAL
 73
     1
 44
1.0
  0
MTEXT
  5
2CC
330
90
100
AcDbEntity
  8
STANDARD
  6
AUSGEZOGEN
 62
     7
440
 33554687
370
    25
100
AcDbMText
 10
0.1461981811523438
 20
0.1176065673828125
 30
0.0
 40
0.002
 41
0.0253720580953953
 71
     7
 72
     5
  1
\W1.01;Stellstein aufkleben
  7
ARIAL
 73
     1
 44
1.0
  0
MTEXT
  5
2CD
330
90
100
AcDbEntity
  8
STANDARD
  6
AUSGEZOGEN
 62
     7
440
 33554687
370
    25
100
AcDbMText
 10
0.1461906127929687
 20
0.1236056518554687
 30
0.0
 40
0.002
 41
0.0138037641154329
 71
     7
 72
     5
  1
\W1.00;Haftkleber
  7
ARIAL
 73
     1
 44
1.0
  0
LINE
  5
2CE
330
90
100
AcDbEntity
  8
STANDARD
  6
AUSGEZOGEN
 62
     7
440
 33554687
370
    25
100
AcDbLine
 10
0.0864138793945313
 20
0.1225009155273438
 30
0.0
 11
0.0882138671875
 21
0.124301025390625
 31
0.0
  0
LINE
  5
2CF
330
90
100
AcDbEntity
  8
STANDARD
  6
AUSGEZOGEN
 62
     7
440
 33554687
370
    25
100
AcDbLine
 10
0.0964119262695313
 20
0.1225009155273438
 30
0.0
 11
0.0982119140625
 21
0.124301025390625
 31
0.0
  0
LINE
  5
2D0
330
90
100
AcDbEntity
  8
STANDARD
  6
AUSGEZOGEN
 62
     7
440
 33554687
370
    25
100
AcDbLine
 10
0.0873139038085937
 20
0.1234009399414062
 30
0.0
 11
0.0873139038085937
 21
0.1249010009765625
 31
0.0
  0
LINE
  5
2D1
330
90
100
AcDbEntity
  8
STANDARD
  6
AUSGEZOGEN
 62
     7
440
 33554687
370
    25
100
AcDbLine
 10
0.0873139038085937
 20
0.1234009399414062
 30
0.0
 11
0.0873139038085937
 21
0.1219010009765625
 31
0.0
  0
LINE
  5
2D2
330
90
100
AcDbEntity
  8
STANDARD
  6
AUSGEZOGEN
 62
     7
440
 33554687
370
    25
100
AcDbLine
 10
0.0973119506835937
 20
0.1234009399414062
 30
0.0
 11
0.0973119506835937
 21
0.1249010009765625
 31
0.0
  0
LINE
  5
2D3
330
90
100
AcDbEntity
  8
STANDARD
  6
AUSGEZOGEN
 62
     7
440
 33554687
370
    25
100
AcDbLine
 10
0.0973119506835937
 20
0.1234009399414062
 30
0.0
 11
0.0973119506835937
 21
0.1219010009765625
 31
0.0
  0
LINE
  5
2D4
330
90
100
AcDbEntity
  8
STANDARD
  6
AUSGEZOGEN
 62
     7
440
 33554687
370
    25
100
AcDbLine
 10
0.0873139038085937
 20
0.1234009399414062
 30
0.0
 11
0.0873139038085937
 21
0.1274009399414062
 31
0.0
  0
LINE
  5
2D5
330
90
100
AcDbEntity
  8
STANDARD
  6
AUSGEZOGEN
 62
     7
440
 33554687
370
    25
100
AcDbLine
 10
0.0973119506835937
 20
0.1234009399414062
 30
0.0
 11
0.0973119506835937
 21
0.1273560180664063
 31
0.0
  0
LINE
  5
2D6
330
90
100
AcDbEntity
  8
STANDARD
  6
AUSGEZOGEN
 62
     7
440
 33554687
370
    25
100
AcDbLine
 10
0.0873139038085937
 20
0.1234009399414062
 30
0.0
 11
0.0858139038085938
 21
0.1234009399414062
 31
0.0
  0
LINE
  5
2D7
330
90
100
AcDbEntity
  8
STANDARD
  6
AUSGEZOGEN
 62
     7
440
 33554687
370
    25
100
AcDbLine
 10
0.0973119506835937
 20
0.1234009399414062
 30
0.0
 11
0.0988118896484375
 21
0.1234009399414062
 31
0.0
  0
MTEXT
  5
2D8
330
90
100
AcDbEntity
  8
STANDARD
  6
AUSGEZOGEN
 62
     7
440
 33554687
370
    25
100
AcDbMText
 10
0.0915919189453125
 20
0.12443505859375
 30
0.0
 40
0.002
 41
0.0025569742941424
 71
     7
 72
     5
  1
\W0.99;5
  7
ARIAL
 73
     1
 44
1.0
  0
LINE
  5
2D9
330
90
100
AcDbEntity
  8
STANDARD
  6
AUSGEZOGEN
 62
     7
440
 33554687
370
    25
100
AcDbLine
 10
0.0873139038085937
 20
0.1234009399414062
 30
0.0
 11
0.0973119506835937
 21
0.1234009399414062
 31
0.0
  0
LINE
  5
2DA
330
90
100
AcDbEntity
  8
STANDARD
  6
AUSGEZOGEN
 62
     7
440
 33554687
370
    25
100
AcDbLine
 10
0.034851318359375
 20
0.1092969360351563
 30
0.0
 11
0.0366513061523438
 21
0.111096923828125
 31
0.0
  0
LINE
  5
2DB
330
90
100
AcDbEntity
  8
STANDARD
  6
AUSGEZOGEN
 62
     7
440
 33554687
370
    25
100
AcDbLine
 10
0.0448493041992188
 20
0.1092969360351563
 30
0.0
 11
0.0466492919921875
 21
0.111096923828125
 31
0.0
  0
LINE
  5
2DC
330
90
100
AcDbEntity
  8
STANDARD
  6
AUSGEZOGEN
 62
     7
440
 33554687
370
    25
100
AcDbLine
 10
0.0357513427734375
 20
0.1101968994140625
 30
0.0
 11
0.0357513427734375
 21
0.1116969604492188
 31
0.0
  0
LINE
  5
2DD
330
90
100
AcDbEntity
  8
STANDARD
  6
AUSGEZOGEN
 62
     7
440
 33554687
370
    25
100
AcDbLine
 10
0.0357513427734375
 20
0.1101968994140625
 30
0.0
 11
0.0357513427734375
 21
0.1086969604492188
 31
0.0
  0
LINE
  5
2DE
330
90
100
AcDbEntity
  8
STANDARD
  6
AUSGEZOGEN
 62
     7
440
 33554687
370
    25
100
AcDbLine
 10
0.045749267578125
 20
0.1101968994140625
 30
0.0
 11
0.045749267578125
 21
0.1116969604492188
 31
0.0
  0
LINE
  5
2DF
330
90
100
AcDbEntity
  8
STANDARD
  6
AUSGEZOGEN
 62
     7
440
 33554687
370
    25
100
AcDbLine
 10
0.045749267578125
 20
0.1101968994140625
 30
0.0
 11
0.045749267578125
 21
0.1086969604492188
 31
0.0
  0
LINE
  5
2E0
330
90
100
AcDbEntity
  8
STANDARD
  6
AUSGEZOGEN
 62
     7
440
 33554687
370
    25
100
AcDbLine
 10
0.0357513427734375
 20
0.1101968994140625
 30
0.0
 11
0.0357513427734375
 21
0.1001968994140625
 31
0.0
  0
LINE
  5
2E1
330
90
100
AcDbEntity
  8
STANDARD
  6
AUSGEZOGEN
 62
     7
440
 33554687
370
    25
100
AcDbLine
 10
0.045749267578125
 20
0.1101968994140625
 30
0.0
 11
0.045749267578125
 21
0.1001968994140625
 31
0.0
  0
LINE
  5
2E2
330
90
100
AcDbEntity
  8
STANDARD
  6
AUSGEZOGEN
 62
     7
440
 33554687
370
    25
100
AcDbLine
 10
0.0357513427734375
 20
0.1101968994140625
 30
0.0
 11
0.0342512817382813
 21
0.1101968994140625
 31
0.0
  0
LINE
  5
2E3
330
90
100
AcDbEntity
  8
STANDARD
  6
AUSGEZOGEN
 62
     7
440
 33554687
370
    25
100
AcDbLine
 10
0.045749267578125
 20
0.1101968994140625
 30
0.0
 11
0.0472493286132813
 21
0.1101968994140625
 31
0.0
  0
MTEXT
  5
2E4
330
90
100
AcDbEntity
  8
STANDARD
  6
AUSGEZOGEN
 62
     7
440
 33554687
370
    25
100
AcDbMText
 10
0.040029296875
 20
0.1112310180664063
 30
0.0
 40
0.002
 41
0.0025569742941424
 71
     7
 72
     5
  1
\W0.99;5
  7
ARIAL
 73
     1
 44
1.0
  0
LINE
  5
2E5
330
90
100
AcDbEntity
  8
STANDARD
  6
AUSGEZOGEN
 62
     7
440
 33554687
370
    25
100
AcDbLine
 10
0.0357513427734375
 20
0.1101968994140625
 30
0.0
 11
0.045749267578125
 21
0.1101968994140625
 31
0.0
  0
LINE
  5
2E6
330
90
100
AcDbEntity
  8
STANDARD
  6
AUSGEZOGEN
 62
     7
440
 33554687
370
    25
100
AcDbLine
 10
0.06258984375
 20
0.1091773681640625
 30
0.0
 11
0.0643898315429687
 21
0.1109774780273438
 31
0.0
  0
LINE
  5
2E7
330
90
100
AcDbEntity
  8
STANDARD
  6
AUSGEZOGEN
 62
     7
440
 33554687
370
    25
100
AcDbLine
 10
0.0725878295898437
 20
0.1091773681640625
 30
0.0
 11
0.0743877563476563
 21
0.1109774780273438
 31
0.0
  0
LINE
  5
2E8
330
90
100
AcDbEntity
  8
STANDARD
  6
AUSGEZOGEN
 62
     7
440
 33554687
370
    25
100
AcDbLine
 10
0.0634898071289063
 20
0.110077392578125
 30
0.0
 11
0.0634898071289063
 21
0.111577392578125
 31
0.0
  0
LINE
  5
2E9
330
90
100
AcDbEntity
  8
STANDARD
  6
AUSGEZOGEN
 62
     7
440
 33554687
370
    25
100
AcDbLine
 10
0.0634898071289063
 20
0.110077392578125
 30
0.0
 11
0.0634898071289063
 21
0.108577392578125
 31
0.0
  0
LINE
  5
2EA
330
90
100
AcDbEntity
  8
STANDARD
  6
AUSGEZOGEN
 62
     7
440
 33554687
370
    25
100
AcDbLine
 10
0.07348779296875
 20
0.110077392578125
 30
0.0
 11
0.07348779296875
 21
0.111577392578125
 31
0.0
  0
LINE
  5
2EB
330
90
100
AcDbEntity
  8
STANDARD
  6
AUSGEZOGEN
 62
     7
440
 33554687
370
    25
100
AcDbLine
 10
0.07348779296875
 20
0.110077392578125
 30
0.0
 11
0.07348779296875
 21
0.108577392578125
 31
0.0
  0
LINE
  5
2EC
330
90
100
AcDbEntity
  8
STANDARD
  6
AUSGEZOGEN
 62
     7
440
 33554687
370
    25
100
AcDbLine
 10
0.0634898071289063
 20
0.110077392578125
 30
0.0
 11
0.0634898071289063
 21
0.114077392578125
 31
0.0
  0
LINE
  5
2ED
330
90
100
AcDbEntity
  8
STANDARD
  6
AUSGEZOGEN
 62
     7
440
 33554687
370
    25
100
AcDbLine
 10
0.07348779296875
 20
0.110077392578125
 30
0.0
 11
0.07348779296875
 21
0.1140324096679688
 31
0.0
  0
LINE
  5
2EE
330
90
100
AcDbEntity
  8
STANDARD
  6
AUSGEZOGEN
 62
     7
440
 33554687
370
    25
100
AcDbLine
 10
0.0634898071289063
 20
0.110077392578125
 30
0.0
 11
0.0619898071289063
 21
0.110077392578125
 31
0.0
  0
LINE
  5
2EF
330
90
100
AcDbEntity
  8
STANDARD
  6
AUSGEZOGEN
 62
     7
440
 33554687
370
    25
100
AcDbLine
 10
0.07348779296875
 20
0.110077392578125
 30
0.0
 11
0.0749878540039063
 21
0.110077392578125
 31
0.0
  0
MTEXT
  5
2F0
330
90
100
AcDbEntity
  8
STANDARD
  6
AUSGEZOGEN
 62
     7
440
 33554687
370
    25
100
AcDbMText
 10
0.067767822265625
 20
0.1111114501953125
 30
0.0
 40
0.002
 41
0.0025569742941424
 71
     7
 72
     5
  1
\W0.99;5
  7
ARIAL
 73
     1
 44
1.0
  0
LINE
  5
2F1
330
90
100
AcDbEntity
  8
STANDARD
  6
AUSGEZOGEN
 62
     7
440
 33554687
370
    25
100
AcDbLine
 10
0.0634898071289063
 20
0.110077392578125
 30
0.0
 11
0.07348779296875
 21
0.110077392578125
 31
0.0
  0
ENDBLK
  5
92
330
90
100
AcDbEntity
  8
0
100
AcDbBlockEnd
  0
BLOCK
  5
2F3
330
2F2
100
AcDbEntity
  8
0
100
AcDbBlockBegin
  2
TB_7000
 70
     0
 10
0.0
 20
0.0
 30
0.0
  3
TB_7000
  1

  0
MTEXT
  5
2F5
330
2F2
100
AcDbEntity
  8
STANDARD
  6
AUSGEZOGEN
 62
     1
440
 33554687
370
    13
100
AcDbMText
 10
0.034879638671875
 20
0.16685498046875
 30
0.0
 40
0.012
 41
0.1416202450719233
 71
     7
 72
     5
  1
\W1.00;Die PDF- Version:
  7
ARIAL
 73
     1
 44
1.0
  0
MTEXT
  5
2F6
330
2F2
100
AcDbEntity
  8
STANDARD
  6
AUSGEZOGEN
 62
     1
440
 33554687
370
    13
100
AcDbMText
 10
0.0441795654296875
 20
0.14285498046875
 30
0.0
 40
0.012
 41
0.1228365758754864
 71
     7
 72
     5
  1
\W0.97;1.0: 01.12.2015
  7
ARIAL
 73
     1
 44
1.0
  0
MTEXT
  5
2F7
330
2F2
100
AcDbEntity
  8
STANDARD
  6
AUSGEZOGEN
 62
     1
440
 33554687
370
    13
100
AcDbMText
 10
0.0535796508789063
 20
0.11885498046875
 30
0.0
 40
0.012
 41
0.1042164195564269
 71
     7
 72
     5
  1
\W1.00;hat Gültigkeit
  7
ARIAL
 73
     1
 44
1.0
  0
ENDBLK
  5
2F4
330
2F2
100
AcDbEntity
  8
0
100
AcDbBlockEnd
  0
ENDSEC
  0
SECTION
  2
ENTITIES
  0
INSERT
  5
2F8
330
1F
100
AcDbEntity
  8
STANDARD
  6
AUSGEZOGEN
 62
     7
440
 33554687
370
    25
100
AcDbBlockReference
  2
TB_2972
 10
0.0
 20
0.0
 30
0.0
  0
INSERT
  5
2F9
330
1F
100
AcDbEntity
  8
STANDARD
  6
AUSGEZOGEN
 62
     7
440
 33554687
370
    25
100
AcDbBlockReference
  2
TB_2951
 10
0.0
 20
0.0
 30
0.0
  0
INSERT
  5
2FA
330
1F
100
AcDbEntity
  8
STANDARD
  6
AUSGEZOGEN
 62
     7
440
 33554687
370
    25
100
AcDbBlockReference
  2
TB_2999
 10
0.0
 20
0.0
 30
0.0
  0
INSERT
  5
2FB
330
1F
100
AcDbEntity
  8
STANDARD
  6
AUSGEZOGEN
 62
     7
440
 33554687
370
    13
100
AcDbBlockReference
  2
TB_7000
 10
0.0
 20
0.0
 30
0.0
  0
ENDSEC
  0
SECTION
  2
OBJECTS
  0
DICTIONARY
  5
C
330
0
100
AcDbDictionary
281
     1
  3
ACAD_DETAILVIEWSTYLE
350
341
  3
ACAD_GROUP
350
D
  3
ACAD_LAYOUT
350
1A
  3
ACAD_MATERIAL
350
43
  3
ACAD_MLEADERSTYLE
350
6B
  3
ACAD_MLINESTYLE
350
17
  3
ACAD_PLOTSETTINGS
350
19
  3
ACAD_PLOTSTYLENAME
350
E
  3
ACAD_SCALELIST
350
47
  3
ACAD_SECTIONVIEWSTYLE
350
342
  3
ACAD_TABLESTYLE
350
69
  3
ACAD_VISUALSTYLE
350
2A
  3
ACDB_RECOMPOSE_DATA
350
33E
  3
AcDbVariableDictionary
350
2FE
  0
DICTIONARY
  5
2FC
330
8
100
AcDbDictionary
280
     1
281
     1
  3
ACAD_XREC_ROUNDTRIP
360
2FD
  0
DICTIONARY
  5
341
102
{ACAD_REACTORS
330
C
102
}
330
C
100
AcDbDictionary
281
     1
  0
DICTIONARY
  5
D
102
{ACAD_REACTORS
330
C
102
}
330
C
100
AcDbDictionary
281
     1
  0
DICTIONARY
  5
1A
102
{ACAD_REACTORS
330
C
102
}
330
C
100
AcDbDictionary
281
     1
  3
Layout1
350
1E
  3
Layout2
350
26
  3
Model
350
22
  0
DICTIONARY
  5
43
102
{ACAD_REACTORS
330
C
102
}
330
C
100
AcDbDictionary
281
     1
  3
ByBlock
350
45
  3
ByLayer
350
44
  3
Global
350
46
  0
DICTIONARY
  5
6B
102
{ACAD_REACTORS
330
C
102
}
330
C
100
AcDbDictionary
281
     1
  3
Standard
350
6C
  0
DICTIONARY
  5
17
102
{ACAD_REACTORS
330
C
102
}
330
C
100
AcDbDictionary
281
     1
  3
Standard
350
18
  0
DICTIONARY
  5
19
102
{ACAD_REACTORS
330
C
102
}
330
C
100
AcDbDictionary
281
     1
  0
ACDBDICTIONARYWDFLT
  5
E
102
{ACAD_REACTORS
330
C
102
}
330
C
100
AcDbDictionary
281
     1
  3
Normal
350
F
100
AcDbDictionaryWithDefault
340
F
  0
DICTIONARY
  5
47
102
{ACAD_REACTORS
330
C
102
}
330
C
100
AcDbDictionary
281
     1
  3
A0
350
48
  3
A1
350
49
  3
A2
350
4A
  3
A3
350
4B
  3
A4
350
4C
  3
A5
350
4D
  3
A6
350
4E
  3
A7
350
4F
  3
A8
350
50
  3
A9
350
51
  3
B0
350
52
  3
B1
350
53
  3
B2
350
54
  3
B3
350
55
  3
B4
350
56
  3
B5
350
57
  3
B6
350
58
  3
B7
350
59
  3
B8
350
5A
  3
B9
350
5B
  3
C0
350
5C
  3
C1
350
5D
  3
C2
350
5E
  3
C3
350
5F
  3
C4
350
60
  3
C5
350
61
  3
C6
350
62
  3
C7
350
63
  3
C8
350
64
  3
C9
350
65
  3
D0
350
66
  3
D1
350
67
  3
D2
350
68
  0
DICTIONARY
  5
342
102
{ACAD_REACTORS
330
C
102
}
330
C
100
AcDbDictionary
281
     1
  0
DICTIONARY
  5
69
102
{ACAD_REACTORS
330
C
102
}
330
C
100
AcDbDictionary
281
     1
  3
Standard
350
6A
  0
DICTIONARY
  5
2A
102
{ACAD_REACTORS
330
C
102
}
330
C
100
AcDbDictionary
281
     1
  3
2dWireframe
350
2F
  3
Basic
350
32
  3
Brighten
350
36
  3
ColorChange
350
3A
  3
Conceptual
350
34
  3
Dim
350
35
  3
EdgeColorOff
350
3D
  3
Facepattern
350
39
  3
Flat
350
2B
  3
FlatWithEdges
350
2C
  3
Gouraud
350
2D
  3
GouraudWithEdges
350
2E
  3
Hidden
350
31
  3
JitterOff
350
3B
  3
Linepattern
350
38
  3
OverhangOff
350
3C
  3
Realistic
350
33
  3
Shaded
350
42
  3
Shaded with edges
350
41
  3
Shades of Gray
350
3E
  3
Sketchy
350
3F
  3
Thicken
350
37
  3
Wireframe
350
30
  3
X-Ray
350
40
  0
XRECORD
  5
33E
102
{ACAD_REACTORS
330
C
102
}
330
C
100
AcDbXrecord
280
     1
 90
        1
330
6A
  0
DICTIONARY
  5
2FE
102
{ACAD_REACTORS
330
C
102
}
330
C
100
AcDbDictionary
281
     1
  3
CANNOSCALE
350
2FF
  3
CMLEADERSTYLE
350
340
  3
CTABLESTYLE
350
33F
  3
MSLTSCALE
350
300
  3
XCLIPFRAME
350
301
  0
XRECORD
  5
2FD
102
{ACAD_REACTORS
330
2FC
102
}
330
2FC
100
AcDbXrecord
280
     1
102
VTR_0.000_0.000_1.000_1.000_VISUALSTYLE
340
2F
102
VTR_0.000_0.000_1.000_1.000_GRIDDISPLAY
 70
     3
102
VTR_0.000_0.000_1.000_1.000_GRIDMAJOR
 70
     5
102
VTR_0.000_0.000_1.000_1.000_DEFAULTLIGHTING
280
     1
102
VTR_0.000_0.000_1.000_1.000_DEFAULTLIGHTINGTYPE
 70
     1
102
VTR_0.000_0.000_1.000_1.000_BRIGHTNESS
141
0.0
102
VTR_0.000_0.000_1.000_1.000_CONTRAST
142
0.0
  0
LAYOUT
  5
1E
102
{ACAD_REACTORS
330
1A
102
}
330
1A
100
AcDbPlotSettings
  1

  2
none_device
  4
none_user_media
  6

 40
5.100000000000023
 41
5.0
 42
5.1
 43
5.100000000000023
 44
297.0
 45
210.0
 46
0.0
 47
0.0
 48
0.0
 49
0.0
140
0.0
141
0.0
142
1000.0
143
1.0
 70
   688
 72
     1
 73
     0
 74
     5
  7

 75
    33
 76
     0
 77
     2
 78
   300
147
1000.0
148
0.0
149
0.0
100
AcDbLayout
  1
Layout1
 70
     1
 71
     1
 10
0.0
 20
0.0
 11
12.0
 21
9.0
 12
0.0
 22
0.0
 32
0.0
 14
1.000000000000000E+20
 24
1.000000000000000E+20
 34
1.000000000000000E+20
 15
-1.000000000000000E+20
 25
-1.000000000000000E+20
 35
-1.000000000000000E+20
146
0.0
 13
0.0
 23
0.0
 33
0.0
 16
1.0
 26
0.0
 36
0.0
 17
0.0
 27
1.0
 37
0.0
 76
     0
330
1B
  0
LAYOUT
  5
26
102
{ACAD_REACTORS
330
1A
102
}
330
1A
100
AcDbPlotSettings
  1

  2
none_device
  4

  6

 40
0.0
 41
0.0
 42
0.0
 43
0.0
 44
0.0
 45
0.0
 46
0.0
 47
0.0
 48
0.0
 49
0.0
140
0.0
141
0.0
142
1.0
143
1.0
 70
   688
 72
     0
 73
     0
 74
     5
  7

 75
    16
 76
     0
 77
     2
 78
   300
147
1.0
148
0.0
149
0.0
100
AcDbLayout
  1
Layout2
 70
     1
 71
     2
 10
0.0
 20
0.0
 11
0.0
 21
0.0
 12
0.0
 22
0.0
 32
0.0
 14
0.0
 24
0.0
 34
0.0
 15
0.0
 25
0.0
 35
0.0
146
0.0
 13
0.0
 23
0.0
 33
0.0
 16
1.0
 26
0.0
 36
0.0
 17
0.0
 27
1.0
 37
0.0
 76
     0
330
23
  0
LAYOUT
  5
22
102
{ACAD_REACTORS
330
1A
102
}
330
1A
100
AcDbPlotSettings
  1

  2
none_device
  4
Letter_(8.50_x_11.00_Inches)
  6

 40
6.35
 41
6.35
 42
6.35000508
 43
6.35000508
 44
215.9
 45
279.4
 46
0.0
 47
0.0
 48
0.0
 49
0.0
140
0.0
141
0.0
142
1.0
143
1.0
 70
  1712
 72
     0
 73
     0
 74
     0
  7

 75
     0
 76
     0
 77
     2
 78
   300
147
1.0
148
0.0
149
0.0
100
AcDbLayout
  1
Model
 70
     1
 71
     0
 10
0.0
 20
0.0
 11
12.0
 21
9.0
 12
0.0
 22
0.0
 32
0.0
 14
1.000000000000000E+20
 24
1.000000000000000E+20
 34
1.000000000000000E+20
 15
-1.000000000000000E+20
 25
-1.000000000000000E+20
 35
-1.000000000000000E+20
146
0.0
 13
0.0
 23
0.0
 33
0.0
 16
1.0
 26
0.0
 36
0.0
 17
0.0
 27
1.0
 37
0.0
 76
     0
330
1F
331
29
  0
MATERIAL
  5
45
102
{ACAD_REACTORS
330
43
102
}
102
{ACAD_XDICTIONARY
360
334
102
}
330
43
100
AcDbMaterial
  1
ByBlock
  0
MATERIAL
  5
44
102
{ACAD_REACTORS
330
43
102
}
102
{ACAD_XDICTIONARY
360
332
102
}
330
43
100
AcDbMaterial
  1
ByLayer
  0
MATERIAL
  5
46
102
{ACAD_REACTORS
330
43
102
}
102
{ACAD_XDICTIONARY
360
336
102
}
330
43
100
AcDbMaterial
  1
Global
  0
MLEADERSTYLE
  5
6C
102
{ACAD_REACTORS
330
6B
102
}
102
{ACAD_XDICTIONARY
360
33C
102
}
330
6B
100
AcDbMLeaderStyle
170
     2
171
     1
172
     0
 90
        2
 40
0.0
 41
0.0
173
     1
 91
-1056964608
340
14
 92
       -2
290
     1
 42
0.09
291
     1
 43
0.36
  3
Standard
341
0
 44
0.18
300

342
11
174
     1
178
     6
175
     1
176
     0
 93
-1056964608
 45
0.18
292
     0
297
     0
 46
0.18
343
0
 94
-1056964608
 47
1.0
 49
1.0
140
1.0
293
     1
141
0.0
294
     1
177
     0
142
1.0
295
     0
296
     0
143
0.125
1001
ACAD_MLEADERVER
1070
     2
  0
MLINESTYLE
  5
18
102
{ACAD_REACTORS
330
17
102
}
330
17
100
AcDbMlineStyle
  2
Standard
 70
     0
  3

 62
   256
 51
90.0
 52
90.0
 71
     2
 49
0.5
 62
   256
  6
BYLAYER
 49
-0.5
 62
   256
  6
BYLAYER
  0
ACDBPLACEHOLDER
  5
F
102
{ACAD_REACTORS
330
E
102
}
330
E
  0
SCALE
  5
48
102
{ACAD_REACTORS
330
47
102
}
330
47
100
AcDbScale
 70
     0
300
1:1
140
1.0
141
1.0
290
     1
  0
SCALE
  5
49
102
{ACAD_REACTORS
330
47
102
}
330
47
100
AcDbScale
 70
     0
300
1:2
140
1.0
141
2.0
290
     0
  0
SCALE
  5
4A
102
{ACAD_REACTORS
330
47
102
}
330
47
100
AcDbScale
 70
     0
300
1:4
140
1.0
141
4.0
290
     0
  0
SCALE
  5
4B
102
{ACAD_REACTORS
330
47
102
}
330
47
100
AcDbScale
 70
     0
300
1:5
140
1.0
141
5.0
290
     0
  0
SCALE
  5
4C
102
{ACAD_REACTORS
330
47
102
}
330
47
100
AcDbScale
 70
     0
300
1:8
140
1.0
141
8.0
290
     0
  0
SCALE
  5
4D
102
{ACAD_REACTORS
330
47
102
}
330
47
100
AcDbScale
 70
     0
300
1:10
140
1.0
141
10.0
290
     0
  0
SCALE
  5
4E
102
{ACAD_REACTORS
330
47
102
}
330
47
100
AcDbScale
 70
     0
300
1:16
140
1.0
141
16.0
290
     0
  0
SCALE
  5
4F
102
{ACAD_REACTORS
330
47
102
}
330
47
100
AcDbScale
 70
     0
300
1:20
140
1.0
141
20.0
290
     0
  0
SCALE
  5
50
102
{ACAD_REACTORS
330
47
102
}
330
47
100
AcDbScale
 70
     0
300
1:30
140
1.0
141
30.0
290
     0
  0
SCALE
  5
51
102
{ACAD_REACTORS
330
47
102
}
330
47
100
AcDbScale
 70
     0
300
1:40
140
1.0
141
40.0
290
     0
  0
SCALE
  5
52
102
{ACAD_REACTORS
330
47
102
}
330
47
100
AcDbScale
 70
     0
300
1:50
140
1.0
141
50.0
290
     0
  0
SCALE
  5
53
102
{ACAD_REACTORS
330
47
102
}
330
47
100
AcDbScale
 70
     0
300
1:100
140
1.0
141
100.0
290
     0
  0
SCALE
  5
54
102
{ACAD_REACTORS
330
47
102
}
330
47
100
AcDbScale
 70
     0
300
2:1
140
2.0
141
1.0
290
     0
  0
SCALE
  5
55
102
{ACAD_REACTORS
330
47
102
}
330
47
100
AcDbScale
 70
     0
300
4:1
140
4.0
141
1.0
290
     0
  0
SCALE
  5
56
102
{ACAD_REACTORS
330
47
102
}
330
47
100
AcDbScale
 70
     0
300
8:1
140
8.0
141
1.0
290
     0
  0
SCALE
  5
57
102
{ACAD_REACTORS
330
47
102
}
330
47
100
AcDbScale
 70
     0
300
10:1
140
10.0
141
1.0
290
     0
  0
SCALE
  5
58
102
{ACAD_REACTORS
330
47
102
}
330
47
100
AcDbScale
 70
     0
300
100:1
140
100.0
141
1.0
290
     0
  0
SCALE
  5
59
102
{ACAD_REACTORS
330
47
102
}
330
47
100
AcDbScale
 70
     0
300
1/128" = 1'-0"
140
0.0078125
141
12.0
290
     0
  0
SCALE
  5
5A
102
{ACAD_REACTORS
330
47
102
}
330
47
100
AcDbScale
 70
     0
300
1/64" = 1'-0"
140
0.015625
141
12.0
290
     0
  0
SCALE
  5
5B
102
{ACAD_REACTORS
330
47
102
}
330
47
100
AcDbScale
 70
     0
300
1/32" = 1'-0"
140
0.03125
141
12.0
290
     0
  0
SCALE
  5
5C
102
{ACAD_REACTORS
330
47
102
}
330
47
100
AcDbScale
 70
     0
300
1/16" = 1'-0"
140
0.0625
141
12.0
290
     0
  0
SCALE
  5
5D
102
{ACAD_REACTORS
330
47
102
}
330
47
100
AcDbScale
 70
     0
300
3/32" = 1'-0"
140
0.09375
141
12.0
290
     0
  0
SCALE
  5
5E
102
{ACAD_REACTORS
330
47
102
}
330
47
100
AcDbScale
 70
     0
300
1/8" = 1'-0"
140
0.125
141
12.0
290
     0
  0
SCALE
  5
5F
102
{ACAD_REACTORS
330
47
102
}
330
47
100
AcDbScale
 70
     0
300
3/16" = 1'-0"
140
0.1875
141
12.0
290
     0
  0
SCALE
  5
60
102
{ACAD_REACTORS
330
47
102
}
330
47
100
AcDbScale
 70
     0
300
1/4" = 1'-0"
140
0.25
141
12.0
290
     0
  0
SCALE
  5
61
102
{ACAD_REACTORS
330
47
102
}
330
47
100
AcDbScale
 70
     0
300
3/8" = 1'-0"
140
0.375
141
12.0
290
     0
  0
SCALE
  5
62
102
{ACAD_REACTORS
330
47
102
}
330
47
100
AcDbScale
 70
     0
300
1/2" = 1'-0"
140
0.5
141
12.0
290
     0
  0
SCALE
  5
63
102
{ACAD_REACTORS
330
47
102
}
330
47
100
AcDbScale
 70
     0
300
3/4" = 1'-0"
140
0.75
141
12.0
290
     0
  0
SCALE
  5
64
102
{ACAD_REACTORS
330
47
102
}
330
47
100
AcDbScale
 70
     0
300
1" = 1'-0"
140
1.0
141
12.0
290
     0
  0
SCALE
  5
65
102
{ACAD_REACTORS
330
47
102
}
330
47
100
AcDbScale
 70
     0
300
1-1/2" = 1'-0"
140
1.5
141
12.0
290
     0
  0
SCALE
  5
66
102
{ACAD_REACTORS
330
47
102
}
330
47
100
AcDbScale
 70
     0
300
3" = 1'-0"
140
3.0
141
12.0
290
     0
  0
SCALE
  5
67
102
{ACAD_REACTORS
330
47
102
}
330
47
100
AcDbScale
 70
     0
300
6" = 1'-0"
140
6.0
141
12.0
290
     0
  0
SCALE
  5
68
102
{ACAD_REACTORS
330
47
102
}
330
47
100
AcDbScale
 70
     0
300
1'-0" = 1'-0"
140
12.0
141
12.0
290
     0
  0
TABLESTYLE
  5
6A
102
{ACAD_REACTORS
330
69
102
}
102
{ACAD_XDICTIONARY
360
338
102
}
330
69
100
AcDbTableStyle
  3
Standard
 70
     0
 71
     0
 40
0.06
 41
0.06
280
     0
281
     0
  7
Standard
140
0.18
170
     2
 62
     0
 63
   257
283
     0
274
    -2
284
     1
 64
     0
275
    -2
285
     1
 65
     0
276
    -2
286
     1
 66
     0
277
    -2
287
     1
 67
     0
278
    -2
288
     1
 68
     0
279
    -2
289
     1
 69
     0
  7
Standard
140
0.25
170
     5
 62
     0
 63
   257
283
     0
274
    -2
284
     1
 64
     0
275
    -2
285
     1
 65
     0
276
    -2
286
     1
 66
     0
277
    -2
287
     1
 67
     0
278
    -2
288
     1
 68
     0
279
    -2
289
     1
 69
     0
  7
Standard
140
0.18
170
     5
 62
     0
 63
   257
283
     0
274
    -2
284
     1
 64
     0
275
    -2
285
     1
 65
     0
276
    -2
286
     1
 66
     0
277
    -2
287
     1
 67
     0
278
    -2
288
     1
 68
     0
279
    -2
289
     1
 69
     0
  0
VISUALSTYLE
  5
2F
102
{ACAD_REACTORS
330
2A
102
}
102
{ACAD_XDICTIONARY
360
30A
102
}
330
2A
100
AcDbVisualStyle
  2
2dWireframe
 70
     4
 71
     0
 72
     2
 73
     0
 90
        0
 40
0.6
 41
30.0
 62
     5
 63
     7
421
 16777215
 74
     1
 91
        4
 64
     7
 65
   257
 75
     1
175
     1
 42
1.0
 92
        0
 66
   257
 43
1.0
 76
     1
 77
     6
 78
     2
 67
     7
 79
     5
170
     0
171
     0
290
     0
174
     0
 93
        1
 44
0.0
173
     0
291
     0
 45
0.0
1001
ACAD
1000
AcDbSavedByObjectVersion
1070
     0
  0
VISUALSTYLE
  5
32
102
{ACAD_REACTORS
330
2A
102
}
102
{ACAD_XDICTIONARY
360
310
102
}
330
2A
100
AcDbVisualStyle
  2
Basic
 70
     7
 71
     1
 72
     0
 73
     1
 90
        0
 40
0.6
 41
30.0
 62
     5
 63
     7
421
 16777215
 74
     0
 91
        4
 64
     7
 65
   257
 75
     1
175
     1
 42
1.0
 92
        8
 66
     7
 43
1.0
 76
     1
 77
     6
 78
     2
 67
     7
 79
     5
170
     0
171
     0
290
     0
174
     0
 93
        1
 44
0.0
173
     0
291
     1
 45
0.0
1001
ACAD
1000
AcDbSavedByObjectVersion
1070
     0
  0
VISUALSTYLE
  5
36
102
{ACAD_REACTORS
330
2A
102
}
102
{ACAD_XDICTIONARY
360
318
102
}
330
2A
100
AcDbVisualStyle
  2
Brighten
 70
    12
 71
     2
 72
     2
 73
     0
 90
        0
 40
0.6
 41
30.0
 62
     5
 63
     7
421
 16777215
 74
     1
 91
        4
 64
     7
 65
   257
 75
     1
175
     1
 42
1.0
 92
        8
 66
     7
 43
1.0
 76
     1
 77
     6
 78
     2
 67
     7
 79
     5
170
     0
171
     0
290
     0
174
     0
 93
        1
 44
50.0
173
     0
291
     1
 45
0.0
1001
ACAD
1000
AcDbSavedByObjectVersion
1070
     0
  0
VISUALSTYLE
  5
3A
102
{ACAD_REACTORS
330
2A
102
}
102
{ACAD_XDICTIONARY
360
320
102
}
330
2A
100
AcDbVisualStyle
  2
ColorChange
 70
    16
 71
     2
 72
     2
 73
     3
 90
        0
 40
0.6
 41
30.0
 62
     5
 63
     8
421
  8421504
 74
     1
 91
        4
 64
     7
 65
   257
 75
     1
175
     1
 42
1.0
 92
        8
 66
     8
424
  8421504
 43
1.0
 76
     1
 77
     6
 78
     2
 67
     7
 79
     5
170
     0
171
     0
290
     0
174
     0
 93
        1
 44
0.0
173
     0
291
     1
 45
0.0
1001
ACAD
1000
AcDbSavedByObjectVersion
1070
     0
  0
VISUALSTYLE
  5
34
102
{ACAD_REACTORS
330
2A
102
}
102
{ACAD_XDICTIONARY
360
314
102
}
330
2A
100
AcDbVisualStyle
  2
Conceptual
 70
     9
 71
     3
 72
     2
 73
     0
 90
        0
 40
0.6
 41
30.0
 62
     5
 63
     7
421
 16777215
 74
     2
 91
        2
 64
     7
 65
   257
 75
     1
175
     1
 42
179.0
 92
        8
 66
     7
 43
1.0
 76
     1
 77
     6
 78
     2
 67
     7
 79
     3
170
     0
171
     0
290
     0
174
     0
 93
        1
 44
0.0
173
     0
291
     0
 45
0.0
1001
ACAD
1000
AcDbSavedByObjectVersion
1070
     0
  0
VISUALSTYLE
  5
35
102
{ACAD_REACTORS
330
2A
102
}
102
{ACAD_XDICTIONARY
360
316
102
}
330
2A
100
AcDbVisualStyle
  2
Dim
 70
    11
 71
     2
 72
     2
 73
     0
 90
        0
 40
0.6
 41
30.0
 62
     5
 63
     7
421
 16777215
 74
     1
 91
        4
 64
     7
 65
   257
 75
     1
175
     1
 42
1.0
 92
        8
 66
     7
 43
1.0
 76
     1
 77
     6
 78
     2
 67
     7
 79
     5
170
     0
171
     0
290
     0
174
     0
 93
        1
 44
-50.0
173
     0
291
     1
 45
0.0
1001
ACAD
1000
AcDbSavedByObjectVersion
1070
     0
  0
VISUALSTYLE
  5
3D
102
{ACAD_REACTORS
330
2A
102
}
102
{ACAD_XDICTIONARY
360
326
102
}
330
2A
100
AcDbVisualStyle
  2
EdgeColorOff
 70
    22
 71
     2
 72
     2
 73
     0
 90
        0
 40
0.6
 41
30.0
 62
     5
 63
     7
421
 16777215
 74
     1
 91
        4
 64
     7
 65
   257
 75
     1
175
     1
 42
1.0
 92
        8
 66
     7
 43
1.0
 76
     1
 77
     6
 78
     2
 67
     7
 79
     5
170
     0
171
     0
290
     0
174
     0
 93
        1
 44
0.0
173
     0
291
     1
 45
0.0
1001
ACAD
1000
AcDbSavedByObjectVersion
1070
     0
  0
VISUALSTYLE
  5
39
102
{ACAD_REACTORS
330
2A
102
}
102
{ACAD_XDICTIONARY
360
31E
102
}
330
2A
100
AcDbVisualStyle
  2
Facepattern
 70
    15
 71
     2
 72
     2
 73
     0
 90
        0
 40
0.6
 41
30.0
 62
     5
 63
     7
421
 16777215
 74
     1
 91
        4
 64
     7
 65
   257
 75
     1
175
     1
 42
1.0
 92
        8
 66
     7
 43
1.0
 76
     1
 77
     6
 78
     2
 67
     7
 79
     5
170
     0
171
     0
290
     0
174
     0
 93
        1
 44
0.0
173
     0
291
     1
 45
0.0
1001
ACAD
1000
AcDbSavedByObjectVersion
1070
     0
  0
VISUALSTYLE
  5
2B
102
{ACAD_REACTORS
330
2A
102
}
102
{ACAD_XDICTIONARY
360
302
102
}
330
2A
100
AcDbVisualStyle
  2
Flat
 70
     0
 71
     2
 72
     1
 73
     1
 90
        2
 40
0.6
 41
30.0
 62
     5
 63
     7
421
 16777215
 74
     0
 91
        0
 64
     7
 65
   257
 75
     1
175
     1
 42
1.0
 92
        8
 66
     7
 43
1.0
 76
     1
 77
     6
 78
     2
 67
     7
 79
     5
170
     0
171
     0
290
     0
174
     0
 93
       13
 44
0.0
173
     0
291
     1
 45
0.0
1001
ACAD
1000
AcDbSavedByObjectVersion
1070
     0
  0
VISUALSTYLE
  5
2C
102
{ACAD_REACTORS
330
2A
102
}
102
{ACAD_XDICTIONARY
360
304
102
}
330
2A
100
AcDbVisualStyle
  2
FlatWithEdges
 70
     1
 71
     2
 72
     1
 73
     1
 90
        2
 40
0.6
 41
30.0
 62
     5
 63
     7
421
 16777215
 74
     1
 91
        0
 64
     7
 65
   257
 75
     1
175
     1
 42
1.0
 92
        0
 66
   257
 43
1.0
 76
     1
 77
     6
 78
     2
 67
     7
 79
     5
170
     0
171
     0
290
     0
174
     0
 93
       13
 44
0.0
173
     0
291
     1
 45
0.0
1001
ACAD
1000
AcDbSavedByObjectVersion
1070
     0
  0
VISUALSTYLE
  5
2D
102
{ACAD_REACTORS
330
2A
102
}
102
{ACAD_XDICTIONARY
360
306
102
}
330
2A
100
AcDbVisualStyle
  2
Gouraud
 70
     2
 71
     2
 72
     2
 73
     1
 90
        2
 40
0.6
 41
30.0
 62
     5
 63
     7
421
 16777215
 74
     0
 91
        0
 64
     7
 65
   257
 75
     1
175
     1
 42
1.0
 92
        0
 66
     7
 43
1.0
 76
     1
 77
     6
 78
     2
 67
     7
 79
     5
170
     0
171
     0
290
     0
174
     0
 93
       13
 44
0.0
173
     0
291
     1
 45
0.0
1001
ACAD
1000
AcDbSavedByObjectVersion
1070
     0
  0
VISUALSTYLE
  5
2E
102
{ACAD_REACTORS
330
2A
102
}
102
{ACAD_XDICTIONARY
360
308
102
}
330
2A
100
AcDbVisualStyle
  2
GouraudWithEdges
 70
     3
 71
     2
 72
     2
 73
     1
 90
        2
 40
0.6
 41
30.0
 62
     5
 63
     7
421
 16777215
 74
     1
 91
        0
 64
     7
 65
   257
 75
     1
175
     1
 42
1.0
 92
        0
 66
   257
 43
1.0
 76
     1
 77
     6
 78
     2
 67
     7
 79
     5
170
     0
171
     0
290
     0
174
     0
 93
       13
 44
0.0
173
     0
291
     1
 45
0.0
1001
ACAD
1000
AcDbSavedByObjectVersion
1070
     0
  0
VISUALSTYLE
  5
31
102
{ACAD_REACTORS
330
2A
102
}
102
{ACAD_XDICTIONARY
360
30E
102
}
330
2A
100
AcDbVisualStyle
  2
Hidden
 70
     6
 71
     1
 72
     2
 73
     2
 90
        0
 40
0.6
 41
30.0
 62
     5
 63
     7
421
 16777215
 74
     2
 91
        2
 64
     7
 65
   257
 75
     2
175
     1
 42
40.0
 92
        0
 66
   257
 43
1.0
 76
     1
 77
     6
 78
     2
 67
     7
 79
     3
170
     0
171
     0
290
     0
174
     0
 93
        1
 44
0.0
173
     0
291
     0
 45
0.0
1001
ACAD
1000
AcDbSavedByObjectVersion
1070
     0
  0
VISUALSTYLE
  5
3B
102
{ACAD_REACTORS
330
2A
102
}
102
{ACAD_XDICTIONARY
360
322
102
}
330
2A
100
AcDbVisualStyle
  2
JitterOff
 70
    20
 71
     2
 72
     2
 73
     0
 90
        0
 40
0.6
 41
30.0
 62
     5
 63
     7
421
 16777215
 74
     1
 91
        4
 64
     7
 65
   257
 75
     1
175
     1
 42
1.0
 92
       10
 66
     7
 43
1.0
 76
     1
 77
     6
 78
     2
 67
     7
 79
     5
170
     0
171
     0
290
     0
174
     0
 93
        1
 44
0.0
173
     0
291
     1
 45
0.0
1001
ACAD
1000
AcDbSavedByObjectVersion
1070
     0
  0
VISUALSTYLE
  5
38
102
{ACAD_REACTORS
330
2A
102
}
102
{ACAD_XDICTIONARY
360
31C
102
}
330
2A
100
AcDbVisualStyle
  2
Linepattern
 70
    14
 71
     2
 72
     2
 73
     0
 90
        0
 40
0.6
 41
30.0
 62
     5
 63
     7
421
 16777215
 74
     1
 91
        4
 64
     7
 65
   257
 75
     7
175
     7
 42
1.0
 92
        8
 66
     7
 43
1.0
 76
     1
 77
     6
 78
     2
 67
     7
 79
     5
170
     0
171
     0
290
     0
174
     0
 93
        1
 44
0.0
173
     0
291
     1
 45
0.0
1001
ACAD
1000
AcDbSavedByObjectVersion
1070
     0
  0
VISUALSTYLE
  5
3C
102
{ACAD_REACTORS
330
2A
102
}
102
{ACAD_XDICTIONARY
360
324
102
}
330
2A
100
AcDbVisualStyle
  2
OverhangOff
 70
    21
 71
     2
 72
     2
 73
     0
 90
        0
 40
0.6
 41
30.0
 62
     5
 63
     7
421
 16777215
 74
     1
 91
        4
 64
     7
 65
   257
 75
     1
175
     1
 42
1.0
 92
        9
 66
     7
 43
1.0
 76
     1
 77
     6
 78
     2
 67
     7
 79
     5
170
     0
171
     0
290
     0
174
     0
 93
        1
 44
0.0
173
     0
291
     1
 45
0.0
1001
ACAD
1000
AcDbSavedByObjectVersion
1070
     0
  0
VISUALSTYLE
  5
33
102
{ACAD_REACTORS
330
2A
102
}
102
{ACAD_XDICTIONARY
360
312
102
}
330
2A
100
AcDbVisualStyle
  2
Realistic
 70
     8
 71
     2
 72
     3
 73
     0
 90
        2
 40
0.6
 41
30.0
 62
     5
 63
     7
421
 16777215
 74
     0
 91
        0
 64
     7
 65
   257
 75
     1
175
     1
 42
1.0
 92
        8
 66
   257
 43
1.0
 76
     1
 77
     6
 78
     2
 67
     7
 79
     3
170
     0
171
     0
290
     0
174
     0
 93
       13
 44
0.0
173
     0
291
     0
 45
0.0
1001
ACAD
1000
AcDbSavedByObjectVersion
1070
     0
  0
VISUALSTYLE
  5
42
102
{ACAD_REACTORS
330
2A
102
}
102
{ACAD_XDICTIONARY
360
330
102
}
330
2A
100
AcDbVisualStyle
  2
Shaded
 70
    27
 71
     2
 72
     2
 73
     1
 90
        2
 40
0.6
 41
30.0
 62
     5
 63
     7
421
 16777215
 74
     0
 91
        4
 64
     7
 65
   257
 75
     1
175
     1
 42
1.0
 92
        8
 66
   257
 43
1.0
 76
     1
 77
     6
 78
     2
 67
     8
425
  7895160
 79
     3
170
     0
171
     0
290
     0
174
     0
 93
        5
 44
0.0
173
     0
291
     0
 45
0.0
1001
ACAD
1000
AcDbSavedByObjectVersion
1070
     0
  0
VISUALSTYLE
  5
41
102
{ACAD_REACTORS
330
2A
102
}
102
{ACAD_XDICTIONARY
360
32E
102
}
330
2A
100
AcDbVisualStyle
  2
Shaded with edges
 70
    26
 71
     2
 72
     2
 73
     1
 90
        2
 40
0.6
 41
30.0
 62
     5
 63
     7
421
 16777215
 74
     1
 91
       10
 64
     7
 65
   257
 75
     2
175
     1
 42
1.0
 92
        8
 66
   257
 43
1.0
 76
     1
 77
     6
 78
     2
 67
     7
 79
     3
170
     0
171
     0
290
     0
174
     0
 93
        5
 44
0.0
173
     0
291
     0
 45
0.0
1001
ACAD
1000
AcDbSavedByObjectVersion
1070
     0
  0
VISUALSTYLE
  5
3E
102
{ACAD_REACTORS
330
2A
102
}
102
{ACAD_XDICTIONARY
360
328
102
}
330
2A
100
AcDbVisualStyle
  2
Shades of Gray
 70
    23
 71
     2
 72
     2
 73
     3
 90
        0
 40
0.6
 41
30.0
 62
     5
 63
     7
421
 16777215
 74
     2
 91
        2
 64
     7
 65
     7
 75
     1
175
     1
 42
40.0
 92
        8
 66
     7
 43
1.0
 76
     1
 77
     6
 78
     2
 67
     7
 79
     3
170
     0
171
     0
290
     0
174
     0
 93
        1
 44
0.0
173
     0
291
     0
 45
0.0
1001
ACAD
1000
AcDbSavedByObjectVersion
1070
     0
  0
VISUALSTYLE
  5
3F
102
{ACAD_REACTORS
330
2A
102
}
102
{ACAD_XDICTIONARY
360
32A
102
}
330
2A
100
AcDbVisualStyle
  2
Sketchy
 70
    24
 71
     1
 72
     2
 73
     2
 90
        0
 40
0.6
 41
30.0
 62
     5
 63
     7
421
 16777215
 74
     2
 91
        2
 64
     7
 65
     7
 75
     1
175
     1
 42
40.0
 92
       11
 66
     7
 43
1.0
 76
     1
 77
     6
 78
     2
 67
     7
 79
     6
170
     0
171
     0
290
     0
174
     0
 93
        1
 44
0.0
173
     0
291
     0
 45
0.0
1001
ACAD
1000
AcDbSavedByObjectVersion
1070
     0
  0
VISUALSTYLE
  5
37
102
{ACAD_REACTORS
330
2A
102
}
102
{ACAD_XDICTIONARY
360
31A
102
}
330
2A
100
AcDbVisualStyle
  2
Thicken
 70
    13
 71
     2
 72
     2
 73
     0
 90
        0
 40
0.6
 41
30.0
 62
     5
 63
     7
421
 16777215
 74
     1
 91
        4
 64
     7
 65
   257
 75
     1
175
     1
 42
1.0
 92
       12
 66
     7
 43
1.0
 76
     1
 77
     6
 78
     2
 67
     7
 79
     5
170
     0
171
     0
290
     0
174
     0
 93
        1
 44
0.0
173
     0
291
     1
 45
0.0
1001
ACAD
1000
AcDbSavedByObjectVersion
1070
     0
  0
VISUALSTYLE
  5
30
102
{ACAD_REACTORS
330
2A
102
}
102
{ACAD_XDICTIONARY
360
30C
102
}
330
2A
100
AcDbVisualStyle
  2
Wireframe
 70
     5
 71
     0
 72
     2
 73
     0
 90
        0
 40
0.6
 41
30.0
 62
     5
 63
     7
421
 16777215
 74
     1
 91
        4
 64
     7
 65
   257
 75
     1
175
     1
 42
1.0
 92
        0
 66
   257
 43
1.0
 76
     1
 77
     6
 78
     2
 67
     7
 79
     3
170
     0
171
     0
290
     0
174
     0
 93
        1
 44
0.0
173
     0
291
     0
 45
0.0
1001
ACAD
1000
AcDbSavedByObjectVersion
1070
     0
  0
VISUALSTYLE
  5
40
102
{ACAD_REACTORS
330
2A
102
}
102
{ACAD_XDICTIONARY
360
32C
102
}
330
2A
100
AcDbVisualStyle
  2
X-Ray
 70
    25
 71
     2
 72
     2
 73
     1
 90
        1
 40
0.5
 41
30.0
 62
     5
 63
     7
421
 16777215
 74
     1
 91
        0
 64
     7
 65
   257
 75
     1
175
     1
 42
1.0
 92
        8
 66
     7
 43
1.0
 76
     1
 77
     6
 78
     2
 67
     7
 79
     3
170
     0
171
     0
290
     0
174
     0
 93
       13
 44
0.0
173
     0
291
     0
 45
0.0
1001
ACAD
1000
AcDbSavedByObjectVersion
1070
     0
  0
DICTIONARYVAR
  5
2FF
102
{ACAD_REACTORS
330
2FE
102
}
330
2FE
100
DictionaryVariables
280
     0
  1
1:1
  0
DICTIONARYVAR
  5
340
102
{ACAD_REACTORS
330
2FE
102
}
330
2FE
100
DictionaryVariables
280
     0
  1
Standard
  0
DICTIONARYVAR
  5
33F
102
{ACAD_REACTORS
330
2FE
102
}
330
2FE
100
DictionaryVariables
280
     0
  1
Standard
  0
DICTIONARYVAR
  5
300
102
{ACAD_REACTORS
330
2FE
102
}
330
2FE
100
DictionaryVariables
280
     0
  1
1
  0
DICTIONARYVAR
  5
301
102
{ACAD_REACTORS
330
2FE
102
}
330
2FE
100
DictionaryVariables
280
     0
  1
2
  0
DICTIONARY
  5
334
330
45
100
AcDbDictionary
280
     1
281
     1
  3
ACAD_XREC_ROUNDTRIP
360
335
  0
DICTIONARY
  5
332
330
44
100
AcDbDictionary
280
     1
281
     1
  3
ACAD_XREC_ROUNDTRIP
360
333
  0
DICTIONARY
  5
336
330
46
100
AcDbDictionary
280
     1
281
     1
  3
ACAD_XREC_ROUNDTRIP
360
337
  0
DICTIONARY
  5
33C
330
6C
100
AcDbDictionary
280
     1
281
     1
  3
ACAD_XREC_ROUNDTRIP
360
33D
  0
DICTIONARY
  5
338
330
6A
100
AcDbDictionary
280
     1
281
     1
  3
ACAD_ROUNDTRIP_2008_TABLESTYLE_CELLSTYLEMAP
360
33A
  3
ACAD_XREC_ROUNDTRIP
360
339
  0
DICTIONARY
  5
30A
330
2F
100
AcDbDictionary
280
     1
281
     1
  3
ACAD_XREC_ROUNDTRIP
360
30B
  0
DICTIONARY
  5
310
330
32
100
AcDbDictionary
280
     1
281
     1
  3
ACAD_XREC_ROUNDTRIP
360
311
  0
DICTIONARY
  5
318
330
36
100
AcDbDictionary
280
     1
281
     1
  3
ACAD_XREC_ROUNDTRIP
360
319
  0
DICTIONARY
  5
320
330
3A
100
AcDbDictionary
280
     1
281
     1
  3
ACAD_XREC_ROUNDTRIP
360
321
  0
DICTIONARY
  5
314
330
34
100
AcDbDictionary
280
     1
281
     1
  3
ACAD_XREC_ROUNDTRIP
360
315
  0
DICTIONARY
  5
316
330
35
100
AcDbDictionary
280
     1
281
     1
  3
ACAD_XREC_ROUNDTRIP
360
317
  0
DICTIONARY
  5
326
330
3D
100
AcDbDictionary
280
     1
281
     1
  3
ACAD_XREC_ROUNDTRIP
360
327
  0
DICTIONARY
  5
31E
330
39
100
AcDbDictionary
280
     1
281
     1
  3
ACAD_XREC_ROUNDTRIP
360
31F
  0
DICTIONARY
  5
302
330
2B
100
AcDbDictionary
280
     1
281
     1
  3
ACAD_XREC_ROUNDTRIP
360
303
  0
DICTIONARY
  5
304
330
2C
100
AcDbDictionary
280
     1
281
     1
  3
ACAD_XREC_ROUNDTRIP
360
305
  0
DICTIONARY
  5
306
330
2D
100
AcDbDictionary
280
     1
281
     1
  3
ACAD_XREC_ROUNDTRIP
360
307
  0
DICTIONARY
  5
308
330
2E
100
AcDbDictionary
280
     1
281
     1
  3
ACAD_XREC_ROUNDTRIP
360
309
  0
DICTIONARY
  5
30E
330
31
100
AcDbDictionary
280
     1
281
     1
  3
ACAD_XREC_ROUNDTRIP
360
30F
  0
DICTIONARY
  5
322
330
3B
100
AcDbDictionary
280
     1
281
     1
  3
ACAD_XREC_ROUNDTRIP
360
323
  0
DICTIONARY
  5
31C
330
38
100
AcDbDictionary
280
     1
281
     1
  3
ACAD_XREC_ROUNDTRIP
360
31D
  0
DICTIONARY
  5
324
330
3C
100
AcDbDictionary
280
     1
281
     1
  3
ACAD_XREC_ROUNDTRIP
360
325
  0
DICTIONARY
  5
312
330
33
100
AcDbDictionary
280
     1
281
     1
  3
ACAD_XREC_ROUNDTRIP
360
313
  0
DICTIONARY
  5
330
330
42
100
AcDbDictionary
280
     1
281
     1
  3
ACAD_XREC_ROUNDTRIP
360
331
  0
DICTIONARY
  5
32E
330
41
100
AcDbDictionary
280
     1
281
     1
  3
ACAD_XREC_ROUNDTRIP
360
32F
  0
DICTIONARY
  5
328
330
3E
100
AcDbDictionary
280
     1
281
     1
  3
ACAD_XREC_ROUNDTRIP
360
329
  0
DICTIONARY
  5
32A
330
3F
100
AcDbDictionary
280
     1
281
     1
  3
ACAD_XREC_ROUNDTRIP
360
32B
  0
DICTIONARY
  5
31A
330
37
100
AcDbDictionary
280
     1
281
     1
  3
ACAD_XREC_ROUNDTRIP
360
31B
  0
DICTIONARY
  5
30C
330
30
100
AcDbDictionary
280
     1
281
     1
  3
ACAD_XREC_ROUNDTRIP
360
30D
  0
DICTIONARY
  5
32C
330
40
100
AcDbDictionary
280
     1
281
     1
  3
ACAD_XREC_ROUNDTRIP
360
32D
  0
XRECORD
  5
335
102
{ACAD_REACTORS
330
334
102
}
330
334
100
AcDbXrecord
280
     1
102
MATERIAL
148
0.0
149
0.0
149
0.0
 93
        0
 94
      127
282
     0
 72
     1
 77
     1
171
     1
175
     1
179
     1
273
     0
  0
XRECORD
  5
333
102
{ACAD_REACTORS
330
332
102
}
330
332
100
AcDbXrecord
280
     1
102
MATERIAL
148
0.0
149
0.0
149
0.0
 93
        0
 94
      127
282
     0
 72
     1
 77
     1
171
     1
175
     1
179
     1
273
     0
  0
XRECORD
  5
337
102
{ACAD_REACTORS
330
336
102
}
330
336
100
AcDbXrecord
280
     1
102
MATERIAL
148
0.0
149
0.0
149
0.0
 93
        0
 94
      127
282
     0
 72
     1
 77
     1
171
     1
175
     1
179
     1
273
     0
  0
XRECORD
  5
33D
102
{ACAD_REACTORS
330
33C
102
}
330
33C
100
AcDbXrecord
280
     1
102
ACAD_ROUNDTRIP_2010_MLEADER_STYLE
  0
CELLSTYLEMAP
  5
33A
102
{ACAD_REACTORS
330
338
102
}
330
338
100
AcDbCellStyleMap
 90
        3
300
CELLSTYLE
  1
TABLEFORMAT_BEGIN
 90
        5
170
     1
 91
        0
 92
    32768
 62
   257
 93
        1
300
CONTENTFORMAT
  1
CONTENTFORMAT_BEGIN
 90
        0
 91
        0
 92
        4
 93
        0
300

 40
0.0
140
1.0
 94
        5
 62
     0
340
11
144
0.25
309
CONTENTFORMAT_END
171
     1
301
MARGIN
  1
CELLMARGIN_BEGIN
 40
0.06
 40
0.06
 40
0.06
 40
0.06
 40
0.06
 40
0.06
309
CELLMARGIN_END
 94
        6
 95
        1
302
GRIDFORMAT
  1
GRIDFORMAT_BEGIN
 90
        0
 91
        1
 62
     0
 92
       -2
340
14
 93
        0
 40
0.045
309
GRIDFORMAT_END
 95
        2
302
GRIDFORMAT
  1
GRIDFORMAT_BEGIN
 90
        0
 91
        1
 62
     0
 92
       -2
340
14
 93
        0
 40
0.045
309
GRIDFORMAT_END
 95
        4
302
GRIDFORMAT
  1
GRIDFORMAT_BEGIN
 90
        0
 91
        1
 62
     0
 92
       -2
340
14
 93
        0
 40
0.045
309
GRIDFORMAT_END
 95
        8
302
GRIDFORMAT
  1
GRIDFORMAT_BEGIN
 90
        0
 91
        1
 62
     0
 92
       -2
340
14
 93
        0
 40
0.045
309
GRIDFORMAT_END
 95
       16
302
GRIDFORMAT
  1
GRIDFORMAT_BEGIN
 90
        0
 91
        1
 62
     0
 92
       -2
340
14
 93
        0
 40
0.045
309
GRIDFORMAT_END
 95
       32
302
GRIDFORMAT
  1
GRIDFORMAT_BEGIN
 90
        0
 91
        1
 62
     0
 92
       -2
340
14
 93
        0
 40
0.045
309
GRIDFORMAT_END
309
TABLEFORMAT_END
  1
CELLSTYLE_BEGIN
 90
        1
 91
        1
300
_TITLE
309
CELLSTYLE_END
300
CELLSTYLE
  1
TABLEFORMAT_BEGIN
 90
        5
170
     1
 91
        0
 92
        0
 62
   257
 93
        1
300
CONTENTFORMAT
  1
CONTENTFORMAT_BEGIN
 90
        0
 91
        0
 92
        4
 93
        0
300

 40
0.0
140
1.0
 94
        5
 62
     0
340
11
144
0.18
309
CONTENTFORMAT_END
171
     1
301
MARGIN
  1
CELLMARGIN_BEGIN
 40
0.06
 40
0.06
 40
0.06
 40
0.06
 40
0.06
 40
0.06
309
CELLMARGIN_END
 94
        6
 95
        1
302
GRIDFORMAT
  1
GRIDFORMAT_BEGIN
 90
        0
 91
        1
 62
     0
 92
       -2
340
14
 93
        0
 40
0.045
309
GRIDFORMAT_END
 95
        2
302
GRIDFORMAT
  1
GRIDFORMAT_BEGIN
 90
        0
 91
        1
 62
     0
 92
       -2
340
14
 93
        0
 40
0.045
309
GRIDFORMAT_END
 95
        4
302
GRIDFORMAT
  1
GRIDFORMAT_BEGIN
 90
        0
 91
        1
 62
     0
 92
       -2
340
14
 93
        0
 40
0.045
309
GRIDFORMAT_END
 95
        8
302
GRIDFORMAT
  1
GRIDFORMAT_BEGIN
 90
        0
 91
        1
 62
     0
 92
       -2
340
14
 93
        0
 40
0.045
309
GRIDFORMAT_END
 95
       16
302
GRIDFORMAT
  1
GRIDFORMAT_BEGIN
 90
        0
 91
        1
 62
     0
 92
       -2
340
14
 93
        0
 40
0.045
309
GRIDFORMAT_END
 95
       32
302
GRIDFORMAT
  1
GRIDFORMAT_BEGIN
 90
        0
 91
        1
 62
     0
 92
       -2
340
14
 93
        0
 40
0.045
309
GRIDFORMAT_END
309
TABLEFORMAT_END
  1
CELLSTYLE_BEGIN
 90
        2
 91
        1
300
_HEADER
309
CELLSTYLE_END
300
CELLSTYLE
  1
TABLEFORMAT_BEGIN
 90
        5
170
     1
 91
        0
 92
        0
 62
   257
 93
        1
300
CONTENTFORMAT
  1
CONTENTFORMAT_BEGIN
 90
        0
 91
        0
 92
        4
 93
        0
300

 40
0.0
140
1.0
 94
        2
 62
     0
340
11
144
0.18
309
CONTENTFORMAT_END
171
     1
301
MARGIN
  1
CELLMARGIN_BEGIN
 40
0.06
 40
0.06
 40
0.06
 40
0.06
 40
0.06
 40
0.06
309
CELLMARGIN_END
 94
        6
 95
        1
302
GRIDFORMAT
  1
GRIDFORMAT_BEGIN
 90
        0
 91
        1
 62
     0
 92
       -2
340
14
 93
        0
 40
0.045
309
GRIDFORMAT_END
 95
        2
302
GRIDFORMAT
  1
GRIDFORMAT_BEGIN
 90
        0
 91
        1
 62
     0
 92
       -2
340
14
 93
        0
 40
0.045
309
GRIDFORMAT_END
 95
        4
302
GRIDFORMAT
  1
GRIDFORMAT_BEGIN
 90
        0
 91
        1
 62
     0
 92
       -2
340
14
 93
        0
 40
0.045
309
GRIDFORMAT_END
 95
        8
302
GRIDFORMAT
  1
GRIDFORMAT_BEGIN
 90
        0
 91
        1
 62
     0
 92
       -2
340
14
 93
        0
 40
0.045
309
GRIDFORMAT_END
 95
       16
302
GRIDFORMAT
  1
GRIDFORMAT_BEGIN
 90
        0
 91
        1
 62
     0
 92
       -2
340
14
 93
        0
 40
0.045
309
GRIDFORMAT_END
 95
       32
302
GRIDFORMAT
  1
GRIDFORMAT_BEGIN
 90
        0
 91
        1
 62
     0
 92
       -2
340
14
 93
        0
 40
0.045
309
GRIDFORMAT_END
309
TABLEFORMAT_END
  1
CELLSTYLE_BEGIN
 90
        3
 91
        2
300
_DATA
309
CELLSTYLE_END
  0
XRECORD
  5
339
102
{ACAD_REACTORS
330
338
102
}
330
338
100
AcDbXrecord
280
     1
102
ACAD_ROUNDTRIP_PRE2007_TABLESTYLE
 90
        4
 91
        0
  1

 92
        4
 93
        0
  2

 94
        4
 95
        0
  3

  0
XRECORD
  5
30B
102
{ACAD_REACTORS
330
30A
102
}
330
30A
100
AcDbXrecord
280
     1
102
RTVSPropertyOp0
 70
     1
102
RTVSPropertyOp1
 70
     1
102
RTVSPropertyOp2
 70
     1
102
RTVSPropertyOp3
 70
     1
102
RTVSPropertyOp4
 70
     1
102
RTVSPropertyOp5
 70
     1
102
RTVSPropertyOp6
 70
     1
102
RTVSPropertyOp7
 70
     1
102
RTVSPropertyOp8
 70
     1
102
RTVSPropertyOp9
 70
     1
102
RTVSPropertyOp10
 70
     1
102
RTVSPropertyOp11
 70
     1
102
RTVSPropertyOp12
 70
     1
102
RTVSPropertyOp13
 70
     1
102
RTVSPropertyOp14
 70
     1
102
RTVSPropertyOp15
 70
     1
102
RTVSPropertyOp16
 70
     1
102
RTVSPropertyOp17
 70
     1
102
RTVSPropertyOp18
 70
     1
102
RTVSPropertyOp19
 70
     1
102
RTVSPropertyOp20
 70
     1
102
RTVSPropertyOp21
 70
     1
102
RTVSPropertyOp22
 70
     1
102
RTVSPropertyOp23
 70
     1
102
RTVSPropertyOp24
 70
     1
102
RTVSPropertyOp25
 70
     1
102
RTVSPropertyOp26
 70
     1
102
RTVSPropertyOp27
 70
     1
102
RTVSPropertyOp28
 70
     1
102
RTVSPropertyOp29
 70
     1
102
RTVSPropertyOp30
 70
     1
102
RTVSPropertyOp31
 70
     1
102
RTVSPropertyOp32
 70
     1
102
RTVSPropertyOp33
 70
     1
102
RTVSPropertyOp34
 70
     1
102
RTVSPropertyOp35
 70
     1
102
RTVSPropertyOp36
 70
     1
102
RTVSPropertyOp37
 70
     1
102
RTVSPropertyOp38
 70
     1
102
RTVSPropertyOp39
 70
     1
102
RTVSPropertyOp40
 70
     1
102
RTVSPropertyOp41
 70
     1
102
RTVSPropertyOp42
 70
     1
102
RTVSPropertyOp43
 70
     1
102
RTVSPropertyOp44
 70
     1
102
RTVSPropertyOp45
 70
     1
102
RTVSPropertyOp46
 70
     1
102
RTVSPropertyOp47
 70
     1
102
RTVSPropertyOp48
 70
     1
102
RTVSPropertyOp49
 70
     1
102
RTVSPropertyOp50
 70
     1
102
RTVSPropertyOp51
 70
     0
102
RTVSPropertyOp52
 70
     0
102
RTVSPropertyOp53
 70
     1
102
RTVSPropertyOp54
 70
     1
102
RTVSPropertyOp55
 70
     1
102
RTVSPropertyOp56
 70
     1
102
RTVSPropertyOp57
 70
     1
102
RTVSPost2010Prop28
280
     1
102
RTVSPost2010PropOp28
 70
     1
102
RTVSPost2010Prop29
280
     1
102
RTVSPost2010PropOp29
 70
     1
102
RTVSPost2010Prop30
280
     0
102
RTVSPost2010PropOp30
 70
     1
102
RTVSPost2010Prop31
280
     0
102
RTVSPost2010PropOp31
 70
     1
102
RTVSPost2010Prop32
280
     0
102
RTVSPost2010PropOp32
 70
     1
102
RTVSPost2010Prop33
280
     0
102
RTVSPost2010PropOp33
 70
     1
102
RTVSPost2010Prop34
280
     0
102
RTVSPost2010PropOp34
 70
     1
102
RTVSPost2010Prop35
280
     0
102
RTVSPost2010PropOp35
 70
     1
102
RTVSPost2010Prop36
280
     0
102
RTVSPost2010PropOp36
 70
     1
102
RTVSPost2010Prop37
 90
       50
102
RTVSPost2010PropOp37
 70
     1
102
RTVSPost2010Prop38
140
0.0
102
RTVSPost2010PropOp38
 70
     1
102
RTVSPost2010Prop39
140
1.0
102
RTVSPost2010PropOp39
 70
     1
102
RTVSPost2010Prop40
 90
        0
102
RTVSPost2010PropOp40
 70
     1
102
RTVSPost2010Prop41ColorIndex
 90
       18
102
RTVSPost2010Prop41ColorRGB
 90
        0
102
RTVSPost2010PropOp41
 70
     1
102
RTVSPost2010Prop42
 90
       50
102
RTVSPost2010PropOp42
 70
     1
102
RTVSPost2010Prop43
 90
        3
102
RTVSPost2010PropOp43
 70
     1
102
RTVSPost2010Prop44ColorIndex
 90
        5
102
RTVSPost2010Prop44ColorRGB
 90
      255
102
RTVSPost2010PropOp44
 70
     1
102
RTVSPost2010Prop45
280
     0
102
RTVSPost2010PropOp45
 70
     1
102
RTVSPost2010Prop46
 90
       50
102
RTVSPost2010PropOp46
 70
     1
102
RTVSPost2010Prop47
 90
       50
102
RTVSPost2010PropOp47
 70
     1
102
RTVSPost2010Prop48
 90
       50
102
RTVSPost2010PropOp48
 70
     1
102
RTVSPost2010Prop49
280
     0
102
RTVSPost2010PropOp49
 70
     1
102
RTVSPost2010Prop50
 90
       50
102
RTVSPost2010PropOp50
 70
     1
102
RTVSPost2010Prop51ColorIndex
 90
      256
102
RTVSPost2010Prop51ColorRGB
 90
-16777216
102
RTVSPost2010PropOp51
 70
     0
102
RTVSPost2010Prop52
140
1.0
102
RTVSPost2010PropOp52
 70
     0
102
RTVSPost2010Prop53
 90
        2
102
RTVSPost2010PropOp53
 70
     1
102
RTVSPost2010Prop54
  1
strokes_ogs.tif
102
RTVSPost2010PropOp54
 70
     1
102
RTVSPost2010Prop55
280
     0
102
RTVSPost2010PropOp55
 70
     1
102
RTVSPost2010Prop56
140
1.0
102
RTVSPost2010PropOp56
 70
     1
102
RTVSPost2010Prop57
140
1.0
102
RTVSPost2010PropOp57
 70
     1
  0
XRECORD
  5
311
102
{ACAD_REACTORS
330
310
102
}
330
310
100
AcDbXrecord
280
     1
102
RTVSPropertyOp0
 70
     1
102
RTVSPropertyOp1
 70
     1
102
RTVSPropertyOp2
 70
     1
102
RTVSPropertyOp3
 70
     1
102
RTVSPropertyOp4
 70
     1
102
RTVSPropertyOp5
 70
     1
102
RTVSPropertyOp6
 70
     1
102
RTVSPropertyOp7
 70
     1
102
RTVSPropertyOp8
 70
     1
102
RTVSPropertyOp9
 70
     1
102
RTVSPropertyOp10
 70
     1
102
RTVSPropertyOp11
 70
     1
102
RTVSPropertyOp12
 70
     1
102
RTVSPropertyOp13
 70
     1
102
RTVSPropertyOp14
 70
     1
102
RTVSPropertyOp15
 70
     1
102
RTVSPropertyOp16
 70
     1
102
RTVSPropertyOp17
 70
     1
102
RTVSPropertyOp18
 70
     1
102
RTVSPropertyOp19
 70
     1
102
RTVSPropertyOp20
 70
     1
102
RTVSPropertyOp21
 70
     1
102
RTVSPropertyOp22
 70
     1
102
RTVSPropertyOp23
 70
     1
102
RTVSPropertyOp24
 70
     1
102
RTVSPropertyOp25
 70
     1
102
RTVSPropertyOp26
 70
     1
102
RTVSPropertyOp27
 70
     1
102
RTVSPropertyOp28
 70
     1
102
RTVSPropertyOp29
 70
     1
102
RTVSPropertyOp30
 70
     1
102
RTVSPropertyOp31
 70
     1
102
RTVSPropertyOp32
 70
     1
102
RTVSPropertyOp33
 70
     1
102
RTVSPropertyOp34
 70
     1
102
RTVSPropertyOp35
 70
     1
102
RTVSPropertyOp36
 70
     1
102
RTVSPropertyOp37
 70
     1
102
RTVSPropertyOp38
 70
     1
102
RTVSPropertyOp39
 70
     1
102
RTVSPropertyOp40
 70
     1
102
RTVSPropertyOp41
 70
     1
102
RTVSPropertyOp42
 70
     1
102
RTVSPropertyOp43
 70
     1
102
RTVSPropertyOp44
 70
     1
102
RTVSPropertyOp45
 70
     1
102
RTVSPropertyOp46
 70
     1
102
RTVSPropertyOp47
 70
     1
102
RTVSPropertyOp48
 70
     1
102
RTVSPropertyOp49
 70
     1
102
RTVSPropertyOp50
 70
     1
102
RTVSPropertyOp51
 70
     0
102
RTVSPropertyOp52
 70
     0
102
RTVSPropertyOp53
 70
     1
102
RTVSPropertyOp54
 70
     1
102
RTVSPropertyOp55
 70
     1
102
RTVSPropertyOp56
 70
     1
102
RTVSPropertyOp57
 70
     1
102
RTVSPost2010Prop28
280
     0
102
RTVSPost2010PropOp28
 70
     1
102
RTVSPost2010Prop29
280
     1
102
RTVSPost2010PropOp29
 70
     1
102
RTVSPost2010Prop30
280
     1
102
RTVSPost2010PropOp30
 70
     1
102
RTVSPost2010Prop31
280
     0
102
RTVSPost2010PropOp31
 70
     1
102
RTVSPost2010Prop32
280
     0
102
RTVSPost2010PropOp32
 70
     1
102
RTVSPost2010Prop33
280
     0
102
RTVSPost2010PropOp33
 70
     1
102
RTVSPost2010Prop34
280
     0
102
RTVSPost2010PropOp34
 70
     1
102
RTVSPost2010Prop35
280
     0
102
RTVSPost2010PropOp35
 70
     1
102
RTVSPost2010Prop36
280
     0
102
RTVSPost2010PropOp36
 70
     1
102
RTVSPost2010Prop37
 90
       50
102
RTVSPost2010PropOp37
 70
     1
102
RTVSPost2010Prop38
140
0.0
102
RTVSPost2010PropOp38
 70
     1
102
RTVSPost2010Prop39
140
1.0
102
RTVSPost2010PropOp39
 70
     1
102
RTVSPost2010Prop40
 90
        0
102
RTVSPost2010PropOp40
 70
     1
102
RTVSPost2010Prop41ColorIndex
 90
       18
102
RTVSPost2010Prop41ColorRGB
 90
        0
102
RTVSPost2010PropOp41
 70
     1
102
RTVSPost2010Prop42
 90
       50
102
RTVSPost2010PropOp42
 70
     1
102
RTVSPost2010Prop43
 90
        3
102
RTVSPost2010PropOp43
 70
     1
102
RTVSPost2010Prop44ColorIndex
 90
        5
102
RTVSPost2010Prop44ColorRGB
 90
      255
102
RTVSPost2010PropOp44
 70
     1
102
RTVSPost2010Prop45
280
     0
102
RTVSPost2010PropOp45
 70
     1
102
RTVSPost2010Prop46
 90
       50
102
RTVSPost2010PropOp46
 70
     1
102
RTVSPost2010Prop47
 90
       50
102
RTVSPost2010PropOp47
 70
     1
102
RTVSPost2010Prop48
 90
       50
102
RTVSPost2010PropOp48
 70
     1
102
RTVSPost2010Prop49
280
     0
102
RTVSPost2010PropOp49
 70
     1
102
RTVSPost2010Prop50
 90
       50
102
RTVSPost2010PropOp50
 70
     1
102
RTVSPost2010Prop51ColorIndex
 90
      256
102
RTVSPost2010Prop51ColorRGB
 90
-16777216
102
RTVSPost2010PropOp51
 70
     0
102
RTVSPost2010Prop52
140
1.0
102
RTVSPost2010PropOp52
 70
     0
102
RTVSPost2010Prop53
 90
        2
102
RTVSPost2010PropOp53
 70
     1
102
RTVSPost2010Prop54
  1
strokes_ogs.tif
102
RTVSPost2010PropOp54
 70
     1
102
RTVSPost2010Prop55
280
     0
102
RTVSPost2010PropOp55
 70
     1
102
RTVSPost2010Prop56
140
1.0
102
RTVSPost2010PropOp56
 70
     1
102
RTVSPost2010Prop57
140
1.0
102
RTVSPost2010PropOp57
 70
     1
  0
XRECORD
  5
319
102
{ACAD_REACTORS
330
318
102
}
330
318
100
AcDbXrecord
280
     1
102
RTVSPropertyOp0
 70
     1
102
RTVSPropertyOp1
 70
     1
102
RTVSPropertyOp2
 70
     1
102
RTVSPropertyOp3
 70
     1
102
RTVSPropertyOp4
 70
     1
102
RTVSPropertyOp5
 70
     1
102
RTVSPropertyOp6
 70
     1
102
RTVSPropertyOp7
 70
     1
102
RTVSPropertyOp8
 70
     1
102
RTVSPropertyOp9
 70
     1
102
RTVSPropertyOp10
 70
     1
102
RTVSPropertyOp11
 70
     1
102
RTVSPropertyOp12
 70
     1
102
RTVSPropertyOp13
 70
     1
102
RTVSPropertyOp14
 70
     1
102
RTVSPropertyOp15
 70
     1
102
RTVSPropertyOp16
 70
     1
102
RTVSPropertyOp17
 70
     1
102
RTVSPropertyOp18
 70
     1
102
RTVSPropertyOp19
 70
     1
102
RTVSPropertyOp20
 70
     1
102
RTVSPropertyOp21
 70
     1
102
RTVSPropertyOp22
 70
     1
102
RTVSPropertyOp23
 70
     1
102
RTVSPropertyOp24
 70
     1
102
RTVSPropertyOp25
 70
     1
102
RTVSPropertyOp26
 70
     1
102
RTVSPropertyOp27
 70
     1
102
RTVSPropertyOp28
 70
     1
102
RTVSPropertyOp29
 70
     1
102
RTVSPropertyOp30
 70
     1
102
RTVSPropertyOp31
 70
     1
102
RTVSPropertyOp32
 70
     1
102
RTVSPropertyOp33
 70
     1
102
RTVSPropertyOp34
 70
     1
102
RTVSPropertyOp35
 70
     1
102
RTVSPropertyOp36
 70
     1
102
RTVSPropertyOp37
 70
     1
102
RTVSPropertyOp38
 70
     1
102
RTVSPropertyOp39
 70
     1
102
RTVSPropertyOp40
 70
     1
102
RTVSPropertyOp41
 70
     1
102
RTVSPropertyOp42
 70
     1
102
RTVSPropertyOp43
 70
     1
102
RTVSPropertyOp44
 70
     1
102
RTVSPropertyOp45
 70
     1
102
RTVSPropertyOp46
 70
     1
102
RTVSPropertyOp47
 70
     1
102
RTVSPropertyOp48
 70
     1
102
RTVSPropertyOp49
 70
     1
102
RTVSPropertyOp50
 70
     1
102
RTVSPropertyOp51
 70
     0
102
RTVSPropertyOp52
 70
     0
102
RTVSPropertyOp53
 70
     1
102
RTVSPropertyOp54
 70
     1
102
RTVSPropertyOp55
 70
     1
102
RTVSPropertyOp56
 70
     1
102
RTVSPropertyOp57
 70
     1
102
RTVSPost2010Prop28
280
     0
102
RTVSPost2010PropOp28
 70
     1
102
RTVSPost2010Prop29
280
     1
102
RTVSPost2010PropOp29
 70
     1
102
RTVSPost2010Prop30
280
     1
102
RTVSPost2010PropOp30
 70
     1
102
RTVSPost2010Prop31
280
     0
102
RTVSPost2010PropOp31
 70
     1
102
RTVSPost2010Prop32
280
     0
102
RTVSPost2010PropOp32
 70
     1
102
RTVSPost2010Prop33
280
     0
102
RTVSPost2010PropOp33
 70
     1
102
RTVSPost2010Prop34
280
     0
102
RTVSPost2010PropOp34
 70
     1
102
RTVSPost2010Prop35
280
     0
102
RTVSPost2010PropOp35
 70
     1
102
RTVSPost2010Prop36
280
     0
102
RTVSPost2010PropOp36
 70
     1
102
RTVSPost2010Prop37
 90
       50
102
RTVSPost2010PropOp37
 70
     1
102
RTVSPost2010Prop38
140
0.0
102
RTVSPost2010PropOp38
 70
     1
102
RTVSPost2010Prop39
140
1.0
102
RTVSPost2010PropOp39
 70
     1
102
RTVSPost2010Prop40
 90
        0
102
RTVSPost2010PropOp40
 70
     1
102
RTVSPost2010Prop41ColorIndex
 90
       18
102
RTVSPost2010Prop41ColorRGB
 90
        0
102
RTVSPost2010PropOp41
 70
     1
102
RTVSPost2010Prop42
 90
       50
102
RTVSPost2010PropOp42
 70
     1
102
RTVSPost2010Prop43
 90
        3
102
RTVSPost2010PropOp43
 70
     1
102
RTVSPost2010Prop44ColorIndex
 90
        5
102
RTVSPost2010Prop44ColorRGB
 90
      255
102
RTVSPost2010PropOp44
 70
     1
102
RTVSPost2010Prop45
280
     0
102
RTVSPost2010PropOp45
 70
     1
102
RTVSPost2010Prop46
 90
       50
102
RTVSPost2010PropOp46
 70
     1
102
RTVSPost2010Prop47
 90
       50
102
RTVSPost2010PropOp47
 70
     1
102
RTVSPost2010Prop48
 90
       50
102
RTVSPost2010PropOp48
 70
     1
102
RTVSPost2010Prop49
280
     0
102
RTVSPost2010PropOp49
 70
     1
102
RTVSPost2010Prop50
 90
       50
102
RTVSPost2010PropOp50
 70
     1
102
RTVSPost2010Prop51ColorIndex
 90
      256
102
RTVSPost2010Prop51ColorRGB
 90
-16777216
102
RTVSPost2010PropOp51
 70
     0
102
RTVSPost2010Prop52
140
1.0
102
RTVSPost2010PropOp52
 70
     0
102
RTVSPost2010Prop53
 90
        2
102
RTVSPost2010PropOp53
 70
     1
102
RTVSPost2010Prop54
  1
strokes_ogs.tif
102
RTVSPost2010PropOp54
 70
     1
102
RTVSPost2010Prop55
280
     0
102
RTVSPost2010PropOp55
 70
     1
102
RTVSPost2010Prop56
140
1.0
102
RTVSPost2010PropOp56
 70
     1
102
RTVSPost2010Prop57
140
1.0
102
RTVSPost2010PropOp57
 70
     1
  0
XRECORD
  5
321
102
{ACAD_REACTORS
330
320
102
}
330
320
100
AcDbXrecord
280
     1
102
RTVSPropertyOp0
 70
     1
102
RTVSPropertyOp1
 70
     1
102
RTVSPropertyOp2
 70
     1
102
RTVSPropertyOp3
 70
     1
102
RTVSPropertyOp4
 70
     1
102
RTVSPropertyOp5
 70
     1
102
RTVSPropertyOp6
 70
     1
102
RTVSPropertyOp7
 70
     1
102
RTVSPropertyOp8
 70
     1
102
RTVSPropertyOp9
 70
     1
102
RTVSPropertyOp10
 70
     1
102
RTVSPropertyOp11
 70
     1
102
RTVSPropertyOp12
 70
     1
102
RTVSPropertyOp13
 70
     1
102
RTVSPropertyOp14
 70
     1
102
RTVSPropertyOp15
 70
     1
102
RTVSPropertyOp16
 70
     1
102
RTVSPropertyOp17
 70
     1
102
RTVSPropertyOp18
 70
     1
102
RTVSPropertyOp19
 70
     1
102
RTVSPropertyOp20
 70
     1
102
RTVSPropertyOp21
 70
     1
102
RTVSPropertyOp22
 70
     1
102
RTVSPropertyOp23
 70
     1
102
RTVSPropertyOp24
 70
     1
102
RTVSPropertyOp25
 70
     1
102
RTVSPropertyOp26
 70
     1
102
RTVSPropertyOp27
 70
     1
102
RTVSPropertyOp28
 70
     1
102
RTVSPropertyOp29
 70
     1
102
RTVSPropertyOp30
 70
     1
102
RTVSPropertyOp31
 70
     1
102
RTVSPropertyOp32
 70
     1
102
RTVSPropertyOp33
 70
     1
102
RTVSPropertyOp34
 70
     1
102
RTVSPropertyOp35
 70
     1
102
RTVSPropertyOp36
 70
     1
102
RTVSPropertyOp37
 70
     1
102
RTVSPropertyOp38
 70
     1
102
RTVSPropertyOp39
 70
     1
102
RTVSPropertyOp40
 70
     1
102
RTVSPropertyOp41
 70
     1
102
RTVSPropertyOp42
 70
     1
102
RTVSPropertyOp43
 70
     1
102
RTVSPropertyOp44
 70
     1
102
RTVSPropertyOp45
 70
     1
102
RTVSPropertyOp46
 70
     1
102
RTVSPropertyOp47
 70
     1
102
RTVSPropertyOp48
 70
     1
102
RTVSPropertyOp49
 70
     1
102
RTVSPropertyOp50
 70
     1
102
RTVSPropertyOp51
 70
     0
102
RTVSPropertyOp52
 70
     0
102
RTVSPropertyOp53
 70
     1
102
RTVSPropertyOp54
 70
     1
102
RTVSPropertyOp55
 70
     1
102
RTVSPropertyOp56
 70
     1
102
RTVSPropertyOp57
 70
     1
102
RTVSPost2010Prop28
280
     0
102
RTVSPost2010PropOp28
 70
     1
102
RTVSPost2010Prop29
280
     1
102
RTVSPost2010PropOp29
 70
     1
102
RTVSPost2010Prop30
280
     1
102
RTVSPost2010PropOp30
 70
     1
102
RTVSPost2010Prop31
280
     0
102
RTVSPost2010PropOp31
 70
     1
102
RTVSPost2010Prop32
280
     0
102
RTVSPost2010PropOp32
 70
     1
102
RTVSPost2010Prop33
280
     0
102
RTVSPost2010PropOp33
 70
     1
102
RTVSPost2010Prop34
280
     0
102
RTVSPost2010PropOp34
 70
     1
102
RTVSPost2010Prop35
280
     0
102
RTVSPost2010PropOp35
 70
     1
102
RTVSPost2010Prop36
280
     0
102
RTVSPost2010PropOp36
 70
     1
102
RTVSPost2010Prop37
 90
       50
102
RTVSPost2010PropOp37
 70
     1
102
RTVSPost2010Prop38
140
0.0
102
RTVSPost2010PropOp38
 70
     1
102
RTVSPost2010Prop39
140
1.0
102
RTVSPost2010PropOp39
 70
     1
102
RTVSPost2010Prop40
 90
        0
102
RTVSPost2010PropOp40
 70
     1
102
RTVSPost2010Prop41ColorIndex
 90
       18
102
RTVSPost2010Prop41ColorRGB
 90
        0
102
RTVSPost2010PropOp41
 70
     1
102
RTVSPost2010Prop42
 90
       50
102
RTVSPost2010PropOp42
 70
     1
102
RTVSPost2010Prop43
 90
        3
102
RTVSPost2010PropOp43
 70
     1
102
RTVSPost2010Prop44ColorIndex
 90
        5
102
RTVSPost2010Prop44ColorRGB
 90
      255
102
RTVSPost2010PropOp44
 70
     1
102
RTVSPost2010Prop45
280
     0
102
RTVSPost2010PropOp45
 70
     1
102
RTVSPost2010Prop46
 90
       50
102
RTVSPost2010PropOp46
 70
     1
102
RTVSPost2010Prop47
 90
       50
102
RTVSPost2010PropOp47
 70
     1
102
RTVSPost2010Prop48
 90
       50
102
RTVSPost2010PropOp48
 70
     1
102
RTVSPost2010Prop49
280
     0
102
RTVSPost2010PropOp49
 70
     1
102
RTVSPost2010Prop50
 90
       50
102
RTVSPost2010PropOp50
 70
     1
102
RTVSPost2010Prop51ColorIndex
 90
      256
102
RTVSPost2010Prop51ColorRGB
 90
-16777216
102
RTVSPost2010PropOp51
 70
     0
102
RTVSPost2010Prop52
140
1.0
102
RTVSPost2010PropOp52
 70
     0
102
RTVSPost2010Prop53
 90
        2
102
RTVSPost2010PropOp53
 70
     1
102
RTVSPost2010Prop54
  1
strokes_ogs.tif
102
RTVSPost2010PropOp54
 70
     1
102
RTVSPost2010Prop55
280
     0
102
RTVSPost2010PropOp55
 70
     1
102
RTVSPost2010Prop56
140
1.0
102
RTVSPost2010PropOp56
 70
     1
102
RTVSPost2010Prop57
140
1.0
102
RTVSPost2010PropOp57
 70
     1
  0
XRECORD
  5
315
102
{ACAD_REACTORS
330
314
102
}
330
314
100
AcDbXrecord
280
     1
102
RTVSPropertyOp0
 70
     1
102
RTVSPropertyOp1
 70
     1
102
RTVSPropertyOp2
 70
     1
102
RTVSPropertyOp3
 70
     1
102
RTVSPropertyOp4
 70
     1
102
RTVSPropertyOp5
 70
     1
102
RTVSPropertyOp6
 70
     1
102
RTVSPropertyOp7
 70
     1
102
RTVSPropertyOp8
 70
     1
102
RTVSPropertyOp9
 70
     1
102
RTVSPropertyOp10
 70
     1
102
RTVSPropertyOp11
 70
     1
102
RTVSPropertyOp12
 70
     1
102
RTVSPropertyOp13
 70
     1
102
RTVSPropertyOp14
 70
     1
102
RTVSPropertyOp15
 70
     1
102
RTVSPropertyOp16
 70
     1
102
RTVSPropertyOp17
 70
     1
102
RTVSPropertyOp18
 70
     1
102
RTVSPropertyOp19
 70
     1
102
RTVSPropertyOp20
 70
     1
102
RTVSPropertyOp21
 70
     1
102
RTVSPropertyOp22
 70
     1
102
RTVSPropertyOp23
 70
     1
102
RTVSPropertyOp24
 70
     1
102
RTVSPropertyOp25
 70
     1
102
RTVSPropertyOp26
 70
     1
102
RTVSPropertyOp27
 70
     1
102
RTVSPropertyOp28
 70
     1
102
RTVSPropertyOp29
 70
     1
102
RTVSPropertyOp30
 70
     1
102
RTVSPropertyOp31
 70
     1
102
RTVSPropertyOp32
 70
     1
102
RTVSPropertyOp33
 70
     1
102
RTVSPropertyOp34
 70
     1
102
RTVSPropertyOp35
 70
     1
102
RTVSPropertyOp36
 70
     1
102
RTVSPropertyOp37
 70
     1
102
RTVSPropertyOp38
 70
     1
102
RTVSPropertyOp39
 70
     1
102
RTVSPropertyOp40
 70
     1
102
RTVSPropertyOp41
 70
     1
102
RTVSPropertyOp42
 70
     1
102
RTVSPropertyOp43
 70
     1
102
RTVSPropertyOp44
 70
     1
102
RTVSPropertyOp45
 70
     1
102
RTVSPropertyOp46
 70
     1
102
RTVSPropertyOp47
 70
     1
102
RTVSPropertyOp48
 70
     1
102
RTVSPropertyOp49
 70
     1
102
RTVSPropertyOp50
 70
     1
102
RTVSPropertyOp51
 70
     0
102
RTVSPropertyOp52
 70
     0
102
RTVSPropertyOp53
 70
     1
102
RTVSPropertyOp54
 70
     1
102
RTVSPropertyOp55
 70
     1
102
RTVSPropertyOp56
 70
     1
102
RTVSPropertyOp57
 70
     1
102
RTVSPost2010Prop28
280
     0
102
RTVSPost2010PropOp28
 70
     1
102
RTVSPost2010Prop29
280
     1
102
RTVSPost2010PropOp29
 70
     1
102
RTVSPost2010Prop30
280
     1
102
RTVSPost2010PropOp30
 70
     1
102
RTVSPost2010Prop31
280
     0
102
RTVSPost2010PropOp31
 70
     1
102
RTVSPost2010Prop32
280
     0
102
RTVSPost2010PropOp32
 70
     1
102
RTVSPost2010Prop33
280
     0
102
RTVSPost2010PropOp33
 70
     1
102
RTVSPost2010Prop34
280
     0
102
RTVSPost2010PropOp34
 70
     1
102
RTVSPost2010Prop35
280
     0
102
RTVSPost2010PropOp35
 70
     1
102
RTVSPost2010Prop36
280
     0
102
RTVSPost2010PropOp36
 70
     1
102
RTVSPost2010Prop37
 90
       50
102
RTVSPost2010PropOp37
 70
     1
102
RTVSPost2010Prop38
140
0.0
102
RTVSPost2010PropOp38
 70
     1
102
RTVSPost2010Prop39
140
1.0
102
RTVSPost2010PropOp39
 70
     1
102
RTVSPost2010Prop40
 90
        0
102
RTVSPost2010PropOp40
 70
     1
102
RTVSPost2010Prop41ColorIndex
 90
       18
102
RTVSPost2010Prop41ColorRGB
 90
        0
102
RTVSPost2010PropOp41
 70
     1
102
RTVSPost2010Prop42
 90
       50
102
RTVSPost2010PropOp42
 70
     1
102
RTVSPost2010Prop43
 90
        3
102
RTVSPost2010PropOp43
 70
     1
102
RTVSPost2010Prop44ColorIndex
 90
        5
102
RTVSPost2010Prop44ColorRGB
 90
      255
102
RTVSPost2010PropOp44
 70
     1
102
RTVSPost2010Prop45
280
     0
102
RTVSPost2010PropOp45
 70
     1
102
RTVSPost2010Prop46
 90
       50
102
RTVSPost2010PropOp46
 70
     1
102
RTVSPost2010Prop47
 90
       50
102
RTVSPost2010PropOp47
 70
     1
102
RTVSPost2010Prop48
 90
       50
102
RTVSPost2010PropOp48
 70
     1
102
RTVSPost2010Prop49
280
     0
102
RTVSPost2010PropOp49
 70
     1
102
RTVSPost2010Prop50
 90
       50
102
RTVSPost2010PropOp50
 70
     1
102
RTVSPost2010Prop51ColorIndex
 90
      256
102
RTVSPost2010Prop51ColorRGB
 90
-16777216
102
RTVSPost2010PropOp51
 70
     0
102
RTVSPost2010Prop52
140
1.0
102
RTVSPost2010PropOp52
 70
     0
102
RTVSPost2010Prop53
 90
        2
102
RTVSPost2010PropOp53
 70
     1
102
RTVSPost2010Prop54
  1
strokes_ogs.tif
102
RTVSPost2010PropOp54
 70
     1
102
RTVSPost2010Prop55
280
     0
102
RTVSPost2010PropOp55
 70
     1
102
RTVSPost2010Prop56
140
1.0
102
RTVSPost2010PropOp56
 70
     1
102
RTVSPost2010Prop57
140
1.0
102
RTVSPost2010PropOp57
 70
     1
  0
XRECORD
  5
317
102
{ACAD_REACTORS
330
316
102
}
330
316
100
AcDbXrecord
280
     1
102
RTVSPropertyOp0
 70
     1
102
RTVSPropertyOp1
 70
     1
102
RTVSPropertyOp2
 70
     1
102
RTVSPropertyOp3
 70
     1
102
RTVSPropertyOp4
 70
     1
102
RTVSPropertyOp5
 70
     1
102
RTVSPropertyOp6
 70
     1
102
RTVSPropertyOp7
 70
     1
102
RTVSPropertyOp8
 70
     1
102
RTVSPropertyOp9
 70
     1
102
RTVSPropertyOp10
 70
     1
102
RTVSPropertyOp11
 70
     1
102
RTVSPropertyOp12
 70
     1
102
RTVSPropertyOp13
 70
     1
102
RTVSPropertyOp14
 70
     1
102
RTVSPropertyOp15
 70
     1
102
RTVSPropertyOp16
 70
     1
102
RTVSPropertyOp17
 70
     1
102
RTVSPropertyOp18
 70
     1
102
RTVSPropertyOp19
 70
     1
102
RTVSPropertyOp20
 70
     1
102
RTVSPropertyOp21
 70
     1
102
RTVSPropertyOp22
 70
     1
102
RTVSPropertyOp23
 70
     1
102
RTVSPropertyOp24
 70
     1
102
RTVSPropertyOp25
 70
     1
102
RTVSPropertyOp26
 70
     1
102
RTVSPropertyOp27
 70
     1
102
RTVSPropertyOp28
 70
     1
102
RTVSPropertyOp29
 70
     1
102
RTVSPropertyOp30
 70
     1
102
RTVSPropertyOp31
 70
     1
102
RTVSPropertyOp32
 70
     1
102
RTVSPropertyOp33
 70
     1
102
RTVSPropertyOp34
 70
     1
102
RTVSPropertyOp35
 70
     1
102
RTVSPropertyOp36
 70
     1
102
RTVSPropertyOp37
 70
     1
102
RTVSPropertyOp38
 70
     1
102
RTVSPropertyOp39
 70
     1
102
RTVSPropertyOp40
 70
     1
102
RTVSPropertyOp41
 70
     1
102
RTVSPropertyOp42
 70
     1
102
RTVSPropertyOp43
 70
     1
102
RTVSPropertyOp44
 70
     1
102
RTVSPropertyOp45
 70
     1
102
RTVSPropertyOp46
 70
     1
102
RTVSPropertyOp47
 70
     1
102
RTVSPropertyOp48
 70
     1
102
RTVSPropertyOp49
 70
     1
102
RTVSPropertyOp50
 70
     1
102
RTVSPropertyOp51
 70
     0
102
RTVSPropertyOp52
 70
     0
102
RTVSPropertyOp53
 70
     1
102
RTVSPropertyOp54
 70
     1
102
RTVSPropertyOp55
 70
     1
102
RTVSPropertyOp56
 70
     1
102
RTVSPropertyOp57
 70
     1
102
RTVSPost2010Prop28
280
     0
102
RTVSPost2010PropOp28
 70
     1
102
RTVSPost2010Prop29
280
     1
102
RTVSPost2010PropOp29
 70
     1
102
RTVSPost2010Prop30
280
     1
102
RTVSPost2010PropOp30
 70
     1
102
RTVSPost2010Prop31
280
     0
102
RTVSPost2010PropOp31
 70
     1
102
RTVSPost2010Prop32
280
     0
102
RTVSPost2010PropOp32
 70
     1
102
RTVSPost2010Prop33
280
     0
102
RTVSPost2010PropOp33
 70
     1
102
RTVSPost2010Prop34
280
     0
102
RTVSPost2010PropOp34
 70
     1
102
RTVSPost2010Prop35
280
     0
102
RTVSPost2010PropOp35
 70
     1
102
RTVSPost2010Prop36
280
     0
102
RTVSPost2010PropOp36
 70
     1
102
RTVSPost2010Prop37
 90
       50
102
RTVSPost2010PropOp37
 70
     1
102
RTVSPost2010Prop38
140
0.0
102
RTVSPost2010PropOp38
 70
     1
102
RTVSPost2010Prop39
140
1.0
102
RTVSPost2010PropOp39
 70
     1
102
RTVSPost2010Prop40
 90
        0
102
RTVSPost2010PropOp40
 70
     1
102
RTVSPost2010Prop41ColorIndex
 90
       18
102
RTVSPost2010Prop41ColorRGB
 90
        0
102
RTVSPost2010PropOp41
 70
     1
102
RTVSPost2010Prop42
 90
       50
102
RTVSPost2010PropOp42
 70
     1
102
RTVSPost2010Prop43
 90
        3
102
RTVSPost2010PropOp43
 70
     1
102
RTVSPost2010Prop44ColorIndex
 90
        5
102
RTVSPost2010Prop44ColorRGB
 90
      255
102
RTVSPost2010PropOp44
 70
     1
102
RTVSPost2010Prop45
280
     0
102
RTVSPost2010PropOp45
 70
     1
102
RTVSPost2010Prop46
 90
       50
102
RTVSPost2010PropOp46
 70
     1
102
RTVSPost2010Prop47
 90
       50
102
RTVSPost2010PropOp47
 70
     1
102
RTVSPost2010Prop48
 90
       50
102
RTVSPost2010PropOp48
 70
     1
102
RTVSPost2010Prop49
280
     0
102
RTVSPost2010PropOp49
 70
     1
102
RTVSPost2010Prop50
 90
       50
102
RTVSPost2010PropOp50
 70
     1
102
RTVSPost2010Prop51ColorIndex
 90
      256
102
RTVSPost2010Prop51ColorRGB
 90
-16777216
102
RTVSPost2010PropOp51
 70
     0
102
RTVSPost2010Prop52
140
1.0
102
RTVSPost2010PropOp52
 70
     0
102
RTVSPost2010Prop53
 90
        2
102
RTVSPost2010PropOp53
 70
     1
102
RTVSPost2010Prop54
  1
strokes_ogs.tif
102
RTVSPost2010PropOp54
 70
     1
102
RTVSPost2010Prop55
280
     0
102
RTVSPost2010PropOp55
 70
     1
102
RTVSPost2010Prop56
140
1.0
102
RTVSPost2010PropOp56
 70
     1
102
RTVSPost2010Prop57
140
1.0
102
RTVSPost2010PropOp57
 70
     1
  0
XRECORD
  5
327
102
{ACAD_REACTORS
330
326
102
}
330
326
100
AcDbXrecord
280
     1
102
RTVSPropertyOp0
 70
     0
102
RTVSPropertyOp1
 70
     0
102
RTVSPropertyOp2
 70
     0
102
RTVSPropertyOp3
 70
     0
102
RTVSPropertyOp4
 70
     0
102
RTVSPropertyOp5
 70
     0
102
RTVSPropertyOp6
 70
     0
102
RTVSPropertyOp7
 70
     0
102
RTVSPropertyOp8
 70
     0
102
RTVSPropertyOp9
 70
     0
102
RTVSPropertyOp10
 70
     0
102
RTVSPropertyOp11
 70
     0
102
RTVSPropertyOp12
 70
     0
102
RTVSPropertyOp13
 70
     0
102
RTVSPropertyOp14
 70
     2
102
RTVSPropertyOp15
 70
     0
102
RTVSPropertyOp16
 70
     0
102
RTVSPropertyOp17
 70
     0
102
RTVSPropertyOp18
 70
     0
102
RTVSPropertyOp19
 70
     0
102
RTVSPropertyOp20
 70
     0
102
RTVSPropertyOp21
 70
     0
102
RTVSPropertyOp22
 70
     0
102
RTVSPropertyOp23
 70
     0
102
RTVSPropertyOp24
 70
     0
102
RTVSPropertyOp25
 70
     0
102
RTVSPropertyOp26
 70
     0
102
RTVSPropertyOp27
 70
     0
102
RTVSPropertyOp28
 70
     0
102
RTVSPropertyOp29
 70
     0
102
RTVSPropertyOp30
 70
     0
102
RTVSPropertyOp31
 70
     0
102
RTVSPropertyOp32
 70
     0
102
RTVSPropertyOp33
 70
     0
102
RTVSPropertyOp34
 70
     0
102
RTVSPropertyOp35
 70
     0
102
RTVSPropertyOp36
 70
     0
102
RTVSPropertyOp37
 70
     0
102
RTVSPropertyOp38
 70
     0
102
RTVSPropertyOp39
 70
     0
102
RTVSPropertyOp40
 70
     0
102
RTVSPropertyOp41
 70
     0
102
RTVSPropertyOp42
 70
     0
102
RTVSPropertyOp43
 70
     0
102
RTVSPropertyOp44
 70
     0
102
RTVSPropertyOp45
 70
     0
102
RTVSPropertyOp46
 70
     0
102
RTVSPropertyOp47
 70
     0
102
RTVSPropertyOp48
 70
     0
102
RTVSPropertyOp49
 70
     0
102
RTVSPropertyOp50
 70
     0
102
RTVSPropertyOp51
 70
     0
102
RTVSPropertyOp52
 70
     0
102
RTVSPropertyOp53
 70
     0
102
RTVSPropertyOp54
 70
     0
102
RTVSPropertyOp55
 70
     0
102
RTVSPropertyOp56
 70
     0
102
RTVSPropertyOp57
 70
     0
102
RTVSPost2010Prop28
280
     0
102
RTVSPost2010PropOp28
 70
     0
102
RTVSPost2010Prop29
280
     1
102
RTVSPost2010PropOp29
 70
     0
102
RTVSPost2010Prop30
280
     1
102
RTVSPost2010PropOp30
 70
     0
102
RTVSPost2010Prop31
280
     0
102
RTVSPost2010PropOp31
 70
     0
102
RTVSPost2010Prop32
280
     0
102
RTVSPost2010PropOp32
 70
     0
102
RTVSPost2010Prop33
280
     0
102
RTVSPost2010PropOp33
 70
     0
102
RTVSPost2010Prop34
280
     0
102
RTVSPost2010PropOp34
 70
     0
102
RTVSPost2010Prop35
280
     0
102
RTVSPost2010PropOp35
 70
     0
102
RTVSPost2010Prop36
280
     0
102
RTVSPost2010PropOp36
 70
     0
102
RTVSPost2010Prop37
 90
       50
102
RTVSPost2010PropOp37
 70
     0
102
RTVSPost2010Prop38
140
0.0
102
RTVSPost2010PropOp38
 70
     0
102
RTVSPost2010Prop39
140
1.0
102
RTVSPost2010PropOp39
 70
     0
102
RTVSPost2010Prop40
 90
        0
102
RTVSPost2010PropOp40
 70
     0
102
RTVSPost2010Prop41ColorIndex
 90
       18
102
RTVSPost2010Prop41ColorRGB
 90
        0
102
RTVSPost2010PropOp41
 70
     0
102
RTVSPost2010Prop42
 90
       50
102
RTVSPost2010PropOp42
 70
     0
102
RTVSPost2010Prop43
 90
        3
102
RTVSPost2010PropOp43
 70
     0
102
RTVSPost2010Prop44ColorIndex
 90
        5
102
RTVSPost2010Prop44ColorRGB
 90
      255
102
RTVSPost2010PropOp44
 70
     0
102
RTVSPost2010Prop45
280
     0
102
RTVSPost2010PropOp45
 70
     0
102
RTVSPost2010Prop46
 90
       50
102
RTVSPost2010PropOp46
 70
     0
102
RTVSPost2010Prop47
 90
       50
102
RTVSPost2010PropOp47
 70
     0
102
RTVSPost2010Prop48
 90
       50
102
RTVSPost2010PropOp48
 70
     0
102
RTVSPost2010Prop49
280
     0
102
RTVSPost2010PropOp49
 70
     0
102
RTVSPost2010Prop50
 90
       50
102
RTVSPost2010PropOp50
 70
     0
102
RTVSPost2010Prop51ColorIndex
 90
      256
102
RTVSPost2010Prop51ColorRGB
 90
-16777216
102
RTVSPost2010PropOp51
 70
     0
102
RTVSPost2010Prop52
140
1.0
102
RTVSPost2010PropOp52
 70
     0
102
RTVSPost2010Prop53
 90
        2
102
RTVSPost2010PropOp53
 70
     0
102
RTVSPost2010Prop54
  1
strokes_ogs.tif
102
RTVSPost2010PropOp54
 70
     0
102
RTVSPost2010Prop55
280
     0
102
RTVSPost2010PropOp55
 70
     0
102
RTVSPost2010Prop56
140
1.0
102
RTVSPost2010PropOp56
 70
     0
102
RTVSPost2010Prop57
140
1.0
102
RTVSPost2010PropOp57
 70
     0
  0
XRECORD
  5
31F
102
{ACAD_REACTORS
330
31E
102
}
330
31E
100
AcDbXrecord
280
     1
102
RTVSPropertyOp0
 70
     1
102
RTVSPropertyOp1
 70
     1
102
RTVSPropertyOp2
 70
     1
102
RTVSPropertyOp3
 70
     1
102
RTVSPropertyOp4
 70
     1
102
RTVSPropertyOp5
 70
     1
102
RTVSPropertyOp6
 70
     1
102
RTVSPropertyOp7
 70
     1
102
RTVSPropertyOp8
 70
     1
102
RTVSPropertyOp9
 70
     1
102
RTVSPropertyOp10
 70
     1
102
RTVSPropertyOp11
 70
     1
102
RTVSPropertyOp12
 70
     1
102
RTVSPropertyOp13
 70
     1
102
RTVSPropertyOp14
 70
     1
102
RTVSPropertyOp15
 70
     1
102
RTVSPropertyOp16
 70
     1
102
RTVSPropertyOp17
 70
     1
102
RTVSPropertyOp18
 70
     1
102
RTVSPropertyOp19
 70
     1
102
RTVSPropertyOp20
 70
     1
102
RTVSPropertyOp21
 70
     1
102
RTVSPropertyOp22
 70
     1
102
RTVSPropertyOp23
 70
     1
102
RTVSPropertyOp24
 70
     1
102
RTVSPropertyOp25
 70
     1
102
RTVSPropertyOp26
 70
     1
102
RTVSPropertyOp27
 70
     1
102
RTVSPropertyOp28
 70
     1
102
RTVSPropertyOp29
 70
     1
102
RTVSPropertyOp30
 70
     1
102
RTVSPropertyOp31
 70
     1
102
RTVSPropertyOp32
 70
     1
102
RTVSPropertyOp33
 70
     1
102
RTVSPropertyOp34
 70
     1
102
RTVSPropertyOp35
 70
     1
102
RTVSPropertyOp36
 70
     1
102
RTVSPropertyOp37
 70
     1
102
RTVSPropertyOp38
 70
     1
102
RTVSPropertyOp39
 70
     1
102
RTVSPropertyOp40
 70
     1
102
RTVSPropertyOp41
 70
     1
102
RTVSPropertyOp42
 70
     1
102
RTVSPropertyOp43
 70
     1
102
RTVSPropertyOp44
 70
     1
102
RTVSPropertyOp45
 70
     1
102
RTVSPropertyOp46
 70
     1
102
RTVSPropertyOp47
 70
     1
102
RTVSPropertyOp48
 70
     1
102
RTVSPropertyOp49
 70
     1
102
RTVSPropertyOp50
 70
     1
102
RTVSPropertyOp51
 70
     0
102
RTVSPropertyOp52
 70
     0
102
RTVSPropertyOp53
 70
     1
102
RTVSPropertyOp54
 70
     1
102
RTVSPropertyOp55
 70
     1
102
RTVSPropertyOp56
 70
     1
102
RTVSPropertyOp57
 70
     1
102
RTVSPost2010Prop28
280
     0
102
RTVSPost2010PropOp28
 70
     1
102
RTVSPost2010Prop29
280
     1
102
RTVSPost2010PropOp29
 70
     1
102
RTVSPost2010Prop30
280
     1
102
RTVSPost2010PropOp30
 70
     1
102
RTVSPost2010Prop31
280
     0
102
RTVSPost2010PropOp31
 70
     1
102
RTVSPost2010Prop32
280
     0
102
RTVSPost2010PropOp32
 70
     1
102
RTVSPost2010Prop33
280
     0
102
RTVSPost2010PropOp33
 70
     1
102
RTVSPost2010Prop34
280
     0
102
RTVSPost2010PropOp34
 70
     1
102
RTVSPost2010Prop35
280
     0
102
RTVSPost2010PropOp35
 70
     1
102
RTVSPost2010Prop36
280
     0
102
RTVSPost2010PropOp36
 70
     1
102
RTVSPost2010Prop37
 90
       50
102
RTVSPost2010PropOp37
 70
     1
102
RTVSPost2010Prop38
140
0.0
102
RTVSPost2010PropOp38
 70
     1
102
RTVSPost2010Prop39
140
1.0
102
RTVSPost2010PropOp39
 70
     1
102
RTVSPost2010Prop40
 90
        0
102
RTVSPost2010PropOp40
 70
     1
102
RTVSPost2010Prop41ColorIndex
 90
       18
102
RTVSPost2010Prop41ColorRGB
 90
        0
102
RTVSPost2010PropOp41
 70
     1
102
RTVSPost2010Prop42
 90
       50
102
RTVSPost2010PropOp42
 70
     1
102
RTVSPost2010Prop43
 90
        3
102
RTVSPost2010PropOp43
 70
     1
102
RTVSPost2010Prop44ColorIndex
 90
        5
102
RTVSPost2010Prop44ColorRGB
 90
      255
102
RTVSPost2010PropOp44
 70
     1
102
RTVSPost2010Prop45
280
     0
102
RTVSPost2010PropOp45
 70
     1
102
RTVSPost2010Prop46
 90
       50
102
RTVSPost2010PropOp46
 70
     1
102
RTVSPost2010Prop47
 90
       50
102
RTVSPost2010PropOp47
 70
     1
102
RTVSPost2010Prop48
 90
       50
102
RTVSPost2010PropOp48
 70
     1
102
RTVSPost2010Prop49
280
     0
102
RTVSPost2010PropOp49
 70
     1
102
RTVSPost2010Prop50
 90
       50
102
RTVSPost2010PropOp50
 70
     1
102
RTVSPost2010Prop51ColorIndex
 90
      256
102
RTVSPost2010Prop51ColorRGB
 90
-16777216
102
RTVSPost2010PropOp51
 70
     0
102
RTVSPost2010Prop52
140
1.0
102
RTVSPost2010PropOp52
 70
     0
102
RTVSPost2010Prop53
 90
        2
102
RTVSPost2010PropOp53
 70
     1
102
RTVSPost2010Prop54
  1
strokes_ogs.tif
102
RTVSPost2010PropOp54
 70
     1
102
RTVSPost2010Prop55
280
     0
102
RTVSPost2010PropOp55
 70
     1
102
RTVSPost2010Prop56
140
1.0
102
RTVSPost2010PropOp56
 70
     1
102
RTVSPost2010Prop57
140
1.0
102
RTVSPost2010PropOp57
 70
     1
  0
XRECORD
  5
303
102
{ACAD_REACTORS
330
302
102
}
330
302
100
AcDbXrecord
280
     1
102
RTVSPropertyOp0
 70
     1
102
RTVSPropertyOp1
 70
     1
102
RTVSPropertyOp2
 70
     1
102
RTVSPropertyOp3
 70
     1
102
RTVSPropertyOp4
 70
     1
102
RTVSPropertyOp5
 70
     1
102
RTVSPropertyOp6
 70
     1
102
RTVSPropertyOp7
 70
     1
102
RTVSPropertyOp8
 70
     1
102
RTVSPropertyOp9
 70
     1
102
RTVSPropertyOp10
 70
     1
102
RTVSPropertyOp11
 70
     1
102
RTVSPropertyOp12
 70
     1
102
RTVSPropertyOp13
 70
     1
102
RTVSPropertyOp14
 70
     1
102
RTVSPropertyOp15
 70
     1
102
RTVSPropertyOp16
 70
     1
102
RTVSPropertyOp17
 70
     1
102
RTVSPropertyOp18
 70
     1
102
RTVSPropertyOp19
 70
     1
102
RTVSPropertyOp20
 70
     1
102
RTVSPropertyOp21
 70
     1
102
RTVSPropertyOp22
 70
     1
102
RTVSPropertyOp23
 70
     1
102
RTVSPropertyOp24
 70
     1
102
RTVSPropertyOp25
 70
     1
102
RTVSPropertyOp26
 70
     1
102
RTVSPropertyOp27
 70
     1
102
RTVSPropertyOp28
 70
     1
102
RTVSPropertyOp29
 70
     1
102
RTVSPropertyOp30
 70
     1
102
RTVSPropertyOp31
 70
     1
102
RTVSPropertyOp32
 70
     1
102
RTVSPropertyOp33
 70
     1
102
RTVSPropertyOp34
 70
     1
102
RTVSPropertyOp35
 70
     1
102
RTVSPropertyOp36
 70
     1
102
RTVSPropertyOp37
 70
     1
102
RTVSPropertyOp38
 70
     1
102
RTVSPropertyOp39
 70
     1
102
RTVSPropertyOp40
 70
     1
102
RTVSPropertyOp41
 70
     1
102
RTVSPropertyOp42
 70
     1
102
RTVSPropertyOp43
 70
     1
102
RTVSPropertyOp44
 70
     1
102
RTVSPropertyOp45
 70
     1
102
RTVSPropertyOp46
 70
     1
102
RTVSPropertyOp47
 70
     1
102
RTVSPropertyOp48
 70
     1
102
RTVSPropertyOp49
 70
     1
102
RTVSPropertyOp50
 70
     1
102
RTVSPropertyOp51
 70
     0
102
RTVSPropertyOp52
 70
     0
102
RTVSPropertyOp53
 70
     1
102
RTVSPropertyOp54
 70
     1
102
RTVSPropertyOp55
 70
     1
102
RTVSPropertyOp56
 70
     1
102
RTVSPropertyOp57
 70
     1
102
RTVSPost2010Prop28
280
     0
102
RTVSPost2010PropOp28
 70
     1
102
RTVSPost2010Prop29
280
     1
102
RTVSPost2010PropOp29
 70
     1
102
RTVSPost2010Prop30
280
     1
102
RTVSPost2010PropOp30
 70
     1
102
RTVSPost2010Prop31
280
     0
102
RTVSPost2010PropOp31
 70
     1
102
RTVSPost2010Prop32
280
     0
102
RTVSPost2010PropOp32
 70
     1
102
RTVSPost2010Prop33
280
     0
102
RTVSPost2010PropOp33
 70
     1
102
RTVSPost2010Prop34
280
     0
102
RTVSPost2010PropOp34
 70
     1
102
RTVSPost2010Prop35
280
     0
102
RTVSPost2010PropOp35
 70
     1
102
RTVSPost2010Prop36
280
     0
102
RTVSPost2010PropOp36
 70
     1
102
RTVSPost2010Prop37
 90
       50
102
RTVSPost2010PropOp37
 70
     1
102
RTVSPost2010Prop38
140
0.0
102
RTVSPost2010PropOp38
 70
     1
102
RTVSPost2010Prop39
140
1.0
102
RTVSPost2010PropOp39
 70
     1
102
RTVSPost2010Prop40
 90
        0
102
RTVSPost2010PropOp40
 70
     1
102
RTVSPost2010Prop41ColorIndex
 90
       18
102
RTVSPost2010Prop41ColorRGB
 90
        0
102
RTVSPost2010PropOp41
 70
     1
102
RTVSPost2010Prop42
 90
       50
102
RTVSPost2010PropOp42
 70
     1
102
RTVSPost2010Prop43
 90
        3
102
RTVSPost2010PropOp43
 70
     1
102
RTVSPost2010Prop44ColorIndex
 90
        5
102
RTVSPost2010Prop44ColorRGB
 90
      255
102
RTVSPost2010PropOp44
 70
     1
102
RTVSPost2010Prop45
280
     0
102
RTVSPost2010PropOp45
 70
     1
102
RTVSPost2010Prop46
 90
       50
102
RTVSPost2010PropOp46
 70
     1
102
RTVSPost2010Prop47
 90
       50
102
RTVSPost2010PropOp47
 70
     1
102
RTVSPost2010Prop48
 90
       50
102
RTVSPost2010PropOp48
 70
     1
102
RTVSPost2010Prop49
280
     0
102
RTVSPost2010PropOp49
 70
     1
102
RTVSPost2010Prop50
 90
       50
102
RTVSPost2010PropOp50
 70
     1
102
RTVSPost2010Prop51ColorIndex
 90
      256
102
RTVSPost2010Prop51ColorRGB
 90
-16777216
102
RTVSPost2010PropOp51
 70
     0
102
RTVSPost2010Prop52
140
1.0
102
RTVSPost2010PropOp52
 70
     0
102
RTVSPost2010Prop53
 90
        2
102
RTVSPost2010PropOp53
 70
     1
102
RTVSPost2010Prop54
  1
strokes_ogs.tif
102
RTVSPost2010PropOp54
 70
     1
102
RTVSPost2010Prop55
280
     0
102
RTVSPost2010PropOp55
 70
     1
102
RTVSPost2010Prop56
140
1.0
102
RTVSPost2010PropOp56
 70
     1
102
RTVSPost2010Prop57
140
1.0
102
RTVSPost2010PropOp57
 70
     1
  0
XRECORD
  5
305
102
{ACAD_REACTORS
330
304
102
}
330
304
100
AcDbXrecord
280
     1
102
RTVSPropertyOp0
 70
     1
102
RTVSPropertyOp1
 70
     1
102
RTVSPropertyOp2
 70
     1
102
RTVSPropertyOp3
 70
     1
102
RTVSPropertyOp4
 70
     1
102
RTVSPropertyOp5
 70
     1
102
RTVSPropertyOp6
 70
     1
102
RTVSPropertyOp7
 70
     1
102
RTVSPropertyOp8
 70
     1
102
RTVSPropertyOp9
 70
     1
102
RTVSPropertyOp10
 70
     1
102
RTVSPropertyOp11
 70
     1
102
RTVSPropertyOp12
 70
     1
102
RTVSPropertyOp13
 70
     1
102
RTVSPropertyOp14
 70
     1
102
RTVSPropertyOp15
 70
     1
102
RTVSPropertyOp16
 70
     1
102
RTVSPropertyOp17
 70
     1
102
RTVSPropertyOp18
 70
     1
102
RTVSPropertyOp19
 70
     1
102
RTVSPropertyOp20
 70
     1
102
RTVSPropertyOp21
 70
     1
102
RTVSPropertyOp22
 70
     1
102
RTVSPropertyOp23
 70
     1
102
RTVSPropertyOp24
 70
     1
102
RTVSPropertyOp25
 70
     1
102
RTVSPropertyOp26
 70
     1
102
RTVSPropertyOp27
 70
     1
102
RTVSPropertyOp28
 70
     1
102
RTVSPropertyOp29
 70
     1
102
RTVSPropertyOp30
 70
     1
102
RTVSPropertyOp31
 70
     1
102
RTVSPropertyOp32
 70
     1
102
RTVSPropertyOp33
 70
     1
102
RTVSPropertyOp34
 70
     1
102
RTVSPropertyOp35
 70
     1
102
RTVSPropertyOp36
 70
     1
102
RTVSPropertyOp37
 70
     1
102
RTVSPropertyOp38
 70
     1
102
RTVSPropertyOp39
 70
     1
102
RTVSPropertyOp40
 70
     1
102
RTVSPropertyOp41
 70
     1
102
RTVSPropertyOp42
 70
     1
102
RTVSPropertyOp43
 70
     1
102
RTVSPropertyOp44
 70
     1
102
RTVSPropertyOp45
 70
     1
102
RTVSPropertyOp46
 70
     1
102
RTVSPropertyOp47
 70
     1
102
RTVSPropertyOp48
 70
     1
102
RTVSPropertyOp49
 70
     1
102
RTVSPropertyOp50
 70
     1
102
RTVSPropertyOp51
 70
     0
102
RTVSPropertyOp52
 70
     0
102
RTVSPropertyOp53
 70
     1
102
RTVSPropertyOp54
 70
     1
102
RTVSPropertyOp55
 70
     1
102
RTVSPropertyOp56
 70
     1
102
RTVSPropertyOp57
 70
     1
102
RTVSPost2010Prop28
280
     0
102
RTVSPost2010PropOp28
 70
     1
102
RTVSPost2010Prop29
280
     1
102
RTVSPost2010PropOp29
 70
     1
102
RTVSPost2010Prop30
280
     1
102
RTVSPost2010PropOp30
 70
     1
102
RTVSPost2010Prop31
280
     0
102
RTVSPost2010PropOp31
 70
     1
102
RTVSPost2010Prop32
280
     0
102
RTVSPost2010PropOp32
 70
     1
102
RTVSPost2010Prop33
280
     0
102
RTVSPost2010PropOp33
 70
     1
102
RTVSPost2010Prop34
280
     0
102
RTVSPost2010PropOp34
 70
     1
102
RTVSPost2010Prop35
280
     0
102
RTVSPost2010PropOp35
 70
     1
102
RTVSPost2010Prop36
280
     0
102
RTVSPost2010PropOp36
 70
     1
102
RTVSPost2010Prop37
 90
       50
102
RTVSPost2010PropOp37
 70
     1
102
RTVSPost2010Prop38
140
0.0
102
RTVSPost2010PropOp38
 70
     1
102
RTVSPost2010Prop39
140
1.0
102
RTVSPost2010PropOp39
 70
     1
102
RTVSPost2010Prop40
 90
        0
102
RTVSPost2010PropOp40
 70
     1
102
RTVSPost2010Prop41ColorIndex
 90
       18
102
RTVSPost2010Prop41ColorRGB
 90
        0
102
RTVSPost2010PropOp41
 70
     1
102
RTVSPost2010Prop42
 90
       50
102
RTVSPost2010PropOp42
 70
     1
102
RTVSPost2010Prop43
 90
        3
102
RTVSPost2010PropOp43
 70
     1
102
RTVSPost2010Prop44ColorIndex
 90
        5
102
RTVSPost2010Prop44ColorRGB
 90
      255
102
RTVSPost2010PropOp44
 70
     1
102
RTVSPost2010Prop45
280
     0
102
RTVSPost2010PropOp45
 70
     1
102
RTVSPost2010Prop46
 90
       50
102
RTVSPost2010PropOp46
 70
     1
102
RTVSPost2010Prop47
 90
       50
102
RTVSPost2010PropOp47
 70
     1
102
RTVSPost2010Prop48
 90
       50
102
RTVSPost2010PropOp48
 70
     1
102
RTVSPost2010Prop49
280
     0
102
RTVSPost2010PropOp49
 70
     1
102
RTVSPost2010Prop50
 90
       50
102
RTVSPost2010PropOp50
 70
     1
102
RTVSPost2010Prop51ColorIndex
 90
      256
102
RTVSPost2010Prop51ColorRGB
 90
-16777216
102
RTVSPost2010PropOp51
 70
     0
102
RTVSPost2010Prop52
140
1.0
102
RTVSPost2010PropOp52
 70
     0
102
RTVSPost2010Prop53
 90
        2
102
RTVSPost2010PropOp53
 70
     1
102
RTVSPost2010Prop54
  1
strokes_ogs.tif
102
RTVSPost2010PropOp54
 70
     1
102
RTVSPost2010Prop55
280
     0
102
RTVSPost2010PropOp55
 70
     1
102
RTVSPost2010Prop56
140
1.0
102
RTVSPost2010PropOp56
 70
     1
102
RTVSPost2010Prop57
140
1.0
102
RTVSPost2010PropOp57
 70
     1
  0
XRECORD
  5
307
102
{ACAD_REACTORS
330
306
102
}
330
306
100
AcDbXrecord
280
     1
102
RTVSPropertyOp0
 70
     1
102
RTVSPropertyOp1
 70
     1
102
RTVSPropertyOp2
 70
     1
102
RTVSPropertyOp3
 70
     1
102
RTVSPropertyOp4
 70
     1
102
RTVSPropertyOp5
 70
     1
102
RTVSPropertyOp6
 70
     1
102
RTVSPropertyOp7
 70
     1
102
RTVSPropertyOp8
 70
     1
102
RTVSPropertyOp9
 70
     1
102
RTVSPropertyOp10
 70
     1
102
RTVSPropertyOp11
 70
     1
102
RTVSPropertyOp12
 70
     1
102
RTVSPropertyOp13
 70
     1
102
RTVSPropertyOp14
 70
     1
102
RTVSPropertyOp15
 70
     1
102
RTVSPropertyOp16
 70
     1
102
RTVSPropertyOp17
 70
     1
102
RTVSPropertyOp18
 70
     1
102
RTVSPropertyOp19
 70
     1
102
RTVSPropertyOp20
 70
     1
102
RTVSPropertyOp21
 70
     1
102
RTVSPropertyOp22
 70
     1
102
RTVSPropertyOp23
 70
     1
102
RTVSPropertyOp24
 70
     1
102
RTVSPropertyOp25
 70
     1
102
RTVSPropertyOp26
 70
     1
102
RTVSPropertyOp27
 70
     1
102
RTVSPropertyOp28
 70
     1
102
RTVSPropertyOp29
 70
     1
102
RTVSPropertyOp30
 70
     1
102
RTVSPropertyOp31
 70
     1
102
RTVSPropertyOp32
 70
     1
102
RTVSPropertyOp33
 70
     1
102
RTVSPropertyOp34
 70
     1
102
RTVSPropertyOp35
 70
     1
102
RTVSPropertyOp36
 70
     1
102
RTVSPropertyOp37
 70
     1
102
RTVSPropertyOp38
 70
     1
102
RTVSPropertyOp39
 70
     1
102
RTVSPropertyOp40
 70
     1
102
RTVSPropertyOp41
 70
     1
102
RTVSPropertyOp42
 70
     1
102
RTVSPropertyOp43
 70
     1
102
RTVSPropertyOp44
 70
     1
102
RTVSPropertyOp45
 70
     1
102
RTVSPropertyOp46
 70
     1
102
RTVSPropertyOp47
 70
     1
102
RTVSPropertyOp48
 70
     1
102
RTVSPropertyOp49
 70
     1
102
RTVSPropertyOp50
 70
     1
102
RTVSPropertyOp51
 70
     0
102
RTVSPropertyOp52
 70
     0
102
RTVSPropertyOp53
 70
     1
102
RTVSPropertyOp54
 70
     1
102
RTVSPropertyOp55
 70
     1
102
RTVSPropertyOp56
 70
     1
102
RTVSPropertyOp57
 70
     1
102
RTVSPost2010Prop28
280
     0
102
RTVSPost2010PropOp28
 70
     1
102
RTVSPost2010Prop29
280
     1
102
RTVSPost2010PropOp29
 70
     1
102
RTVSPost2010Prop30
280
     1
102
RTVSPost2010PropOp30
 70
     1
102
RTVSPost2010Prop31
280
     0
102
RTVSPost2010PropOp31
 70
     1
102
RTVSPost2010Prop32
280
     0
102
RTVSPost2010PropOp32
 70
     1
102
RTVSPost2010Prop33
280
     0
102
RTVSPost2010PropOp33
 70
     1
102
RTVSPost2010Prop34
280
     0
102
RTVSPost2010PropOp34
 70
     1
102
RTVSPost2010Prop35
280
     0
102
RTVSPost2010PropOp35
 70
     1
102
RTVSPost2010Prop36
280
     0
102
RTVSPost2010PropOp36
 70
     1
102
RTVSPost2010Prop37
 90
       50
102
RTVSPost2010PropOp37
 70
     1
102
RTVSPost2010Prop38
140
0.0
102
RTVSPost2010PropOp38
 70
     1
102
RTVSPost2010Prop39
140
1.0
102
RTVSPost2010PropOp39
 70
     1
102
RTVSPost2010Prop40
 90
        0
102
RTVSPost2010PropOp40
 70
     1
102
RTVSPost2010Prop41ColorIndex
 90
       18
102
RTVSPost2010Prop41ColorRGB
 90
        0
102
RTVSPost2010PropOp41
 70
     1
102
RTVSPost2010Prop42
 90
       50
102
RTVSPost2010PropOp42
 70
     1
102
RTVSPost2010Prop43
 90
        3
102
RTVSPost2010PropOp43
 70
     1
102
RTVSPost2010Prop44ColorIndex
 90
        5
102
RTVSPost2010Prop44ColorRGB
 90
      255
102
RTVSPost2010PropOp44
 70
     1
102
RTVSPost2010Prop45
280
     0
102
RTVSPost2010PropOp45
 70
     1
102
RTVSPost2010Prop46
 90
       50
102
RTVSPost2010PropOp46
 70
     1
102
RTVSPost2010Prop47
 90
       50
102
RTVSPost2010PropOp47
 70
     1
102
RTVSPost2010Prop48
 90
       50
102
RTVSPost2010PropOp48
 70
     1
102
RTVSPost2010Prop49
280
     0
102
RTVSPost2010PropOp49
 70
     1
102
RTVSPost2010Prop50
 90
       50
102
RTVSPost2010PropOp50
 70
     1
102
RTVSPost2010Prop51ColorIndex
 90
      256
102
RTVSPost2010Prop51ColorRGB
 90
-16777216
102
RTVSPost2010PropOp51
 70
     0
102
RTVSPost2010Prop52
140
1.0
102
RTVSPost2010PropOp52
 70
     0
102
RTVSPost2010Prop53
 90
        2
102
RTVSPost2010PropOp53
 70
     1
102
RTVSPost2010Prop54
  1
strokes_ogs.tif
102
RTVSPost2010PropOp54
 70
     1
102
RTVSPost2010Prop55
280
     0
102
RTVSPost2010PropOp55
 70
     1
102
RTVSPost2010Prop56
140
1.0
102
RTVSPost2010PropOp56
 70
     1
102
RTVSPost2010Prop57
140
1.0
102
RTVSPost2010PropOp57
 70
     1
  0
XRECORD
  5
309
102
{ACAD_REACTORS
330
308
102
}
330
308
100
AcDbXrecord
280
     1
102
RTVSPropertyOp0
 70
     1
102
RTVSPropertyOp1
 70
     1
102
RTVSPropertyOp2
 70
     1
102
RTVSPropertyOp3
 70
     1
102
RTVSPropertyOp4
 70
     1
102
RTVSPropertyOp5
 70
     1
102
RTVSPropertyOp6
 70
     1
102
RTVSPropertyOp7
 70
     1
102
RTVSPropertyOp8
 70
     1
102
RTVSPropertyOp9
 70
     1
102
RTVSPropertyOp10
 70
     1
102
RTVSPropertyOp11
 70
     1
102
RTVSPropertyOp12
 70
     1
102
RTVSPropertyOp13
 70
     1
102
RTVSPropertyOp14
 70
     1
102
RTVSPropertyOp15
 70
     1
102
RTVSPropertyOp16
 70
     1
102
RTVSPropertyOp17
 70
     1
102
RTVSPropertyOp18
 70
     1
102
RTVSPropertyOp19
 70
     1
102
RTVSPropertyOp20
 70
     1
102
RTVSPropertyOp21
 70
     1
102
RTVSPropertyOp22
 70
     1
102
RTVSPropertyOp23
 70
     1
102
RTVSPropertyOp24
 70
     1
102
RTVSPropertyOp25
 70
     1
102
RTVSPropertyOp26
 70
     1
102
RTVSPropertyOp27
 70
     1
102
RTVSPropertyOp28
 70
     1
102
RTVSPropertyOp29
 70
     1
102
RTVSPropertyOp30
 70
     1
102
RTVSPropertyOp31
 70
     1
102
RTVSPropertyOp32
 70
     1
102
RTVSPropertyOp33
 70
     1
102
RTVSPropertyOp34
 70
     1
102
RTVSPropertyOp35
 70
     1
102
RTVSPropertyOp36
 70
     1
102
RTVSPropertyOp37
 70
     1
102
RTVSPropertyOp38
 70
     1
102
RTVSPropertyOp39
 70
     1
102
RTVSPropertyOp40
 70
     1
102
RTVSPropertyOp41
 70
     1
102
RTVSPropertyOp42
 70
     1
102
RTVSPropertyOp43
 70
     1
102
RTVSPropertyOp44
 70
     1
102
RTVSPropertyOp45
 70
     1
102
RTVSPropertyOp46
 70
     1
102
RTVSPropertyOp47
 70
     1
102
RTVSPropertyOp48
 70
     1
102
RTVSPropertyOp49
 70
     1
102
RTVSPropertyOp50
 70
     1
102
RTVSPropertyOp51
 70
     0
102
RTVSPropertyOp52
 70
     0
102
RTVSPropertyOp53
 70
     1
102
RTVSPropertyOp54
 70
     1
102
RTVSPropertyOp55
 70
     1
102
RTVSPropertyOp56
 70
     1
102
RTVSPropertyOp57
 70
     1
102
RTVSPost2010Prop28
280
     0
102
RTVSPost2010PropOp28
 70
     1
102
RTVSPost2010Prop29
280
     1
102
RTVSPost2010PropOp29
 70
     1
102
RTVSPost2010Prop30
280
     1
102
RTVSPost2010PropOp30
 70
     1
102
RTVSPost2010Prop31
280
     0
102
RTVSPost2010PropOp31
 70
     1
102
RTVSPost2010Prop32
280
     0
102
RTVSPost2010PropOp32
 70
     1
102
RTVSPost2010Prop33
280
     0
102
RTVSPost2010PropOp33
 70
     1
102
RTVSPost2010Prop34
280
     0
102
RTVSPost2010PropOp34
 70
     1
102
RTVSPost2010Prop35
280
     0
102
RTVSPost2010PropOp35
 70
     1
102
RTVSPost2010Prop36
280
     0
102
RTVSPost2010PropOp36
 70
     1
102
RTVSPost2010Prop37
 90
       50
102
RTVSPost2010PropOp37
 70
     1
102
RTVSPost2010Prop38
140
0.0
102
RTVSPost2010PropOp38
 70
     1
102
RTVSPost2010Prop39
140
1.0
102
RTVSPost2010PropOp39
 70
     1
102
RTVSPost2010Prop40
 90
        0
102
RTVSPost2010PropOp40
 70
     1
102
RTVSPost2010Prop41ColorIndex
 90
       18
102
RTVSPost2010Prop41ColorRGB
 90
        0
102
RTVSPost2010PropOp41
 70
     1
102
RTVSPost2010Prop42
 90
       50
102
RTVSPost2010PropOp42
 70
     1
102
RTVSPost2010Prop43
 90
        3
102
RTVSPost2010PropOp43
 70
     1
102
RTVSPost2010Prop44ColorIndex
 90
        5
102
RTVSPost2010Prop44ColorRGB
 90
      255
102
RTVSPost2010PropOp44
 70
     1
102
RTVSPost2010Prop45
280
     0
102
RTVSPost2010PropOp45
 70
     1
102
RTVSPost2010Prop46
 90
       50
102
RTVSPost2010PropOp46
 70
     1
102
RTVSPost2010Prop47
 90
       50
102
RTVSPost2010PropOp47
 70
     1
102
RTVSPost2010Prop48
 90
       50
102
RTVSPost2010PropOp48
 70
     1
102
RTVSPost2010Prop49
280
     0
102
RTVSPost2010PropOp49
 70
     1
102
RTVSPost2010Prop50
 90
       50
102
RTVSPost2010PropOp50
 70
     1
102
RTVSPost2010Prop51ColorIndex
 90
      256
102
RTVSPost2010Prop51ColorRGB
 90
-16777216
102
RTVSPost2010PropOp51
 70
     0
102
RTVSPost2010Prop52
140
1.0
102
RTVSPost2010PropOp52
 70
     0
102
RTVSPost2010Prop53
 90
        2
102
RTVSPost2010PropOp53
 70
     1
102
RTVSPost2010Prop54
  1
strokes_ogs.tif
102
RTVSPost2010PropOp54
 70
     1
102
RTVSPost2010Prop55
280
     0
102
RTVSPost2010PropOp55
 70
     1
102
RTVSPost2010Prop56
140
1.0
102
RTVSPost2010PropOp56
 70
     1
102
RTVSPost2010Prop57
140
1.0
102
RTVSPost2010PropOp57
 70
     1
  0
XRECORD
  5
30F
102
{ACAD_REACTORS
330
30E
102
}
330
30E
100
AcDbXrecord
280
     1
102
RTVSPropertyOp0
 70
     1
102
RTVSPropertyOp1
 70
     1
102
RTVSPropertyOp2
 70
     1
102
RTVSPropertyOp3
 70
     1
102
RTVSPropertyOp4
 70
     1
102
RTVSPropertyOp5
 70
     1
102
RTVSPropertyOp6
 70
     1
102
RTVSPropertyOp7
 70
     1
102
RTVSPropertyOp8
 70
     1
102
RTVSPropertyOp9
 70
     1
102
RTVSPropertyOp10
 70
     1
102
RTVSPropertyOp11
 70
     1
102
RTVSPropertyOp12
 70
     1
102
RTVSPropertyOp13
 70
     1
102
RTVSPropertyOp14
 70
     1
102
RTVSPropertyOp15
 70
     1
102
RTVSPropertyOp16
 70
     1
102
RTVSPropertyOp17
 70
     1
102
RTVSPropertyOp18
 70
     1
102
RTVSPropertyOp19
 70
     1
102
RTVSPropertyOp20
 70
     1
102
RTVSPropertyOp21
 70
     1
102
RTVSPropertyOp22
 70
     1
102
RTVSPropertyOp23
 70
     1
102
RTVSPropertyOp24
 70
     1
102
RTVSPropertyOp25
 70
     1
102
RTVSPropertyOp26
 70
     1
102
RTVSPropertyOp27
 70
     1
102
RTVSPropertyOp28
 70
     1
102
RTVSPropertyOp29
 70
     1
102
RTVSPropertyOp30
 70
     1
102
RTVSPropertyOp31
 70
     1
102
RTVSPropertyOp32
 70
     1
102
RTVSPropertyOp33
 70
     1
102
RTVSPropertyOp34
 70
     1
102
RTVSPropertyOp35
 70
     1
102
RTVSPropertyOp36
 70
     1
102
RTVSPropertyOp37
 70
     1
102
RTVSPropertyOp38
 70
     1
102
RTVSPropertyOp39
 70
     1
102
RTVSPropertyOp40
 70
     1
102
RTVSPropertyOp41
 70
     1
102
RTVSPropertyOp42
 70
     1
102
RTVSPropertyOp43
 70
     1
102
RTVSPropertyOp44
 70
     1
102
RTVSPropertyOp45
 70
     1
102
RTVSPropertyOp46
 70
     1
102
RTVSPropertyOp47
 70
     1
102
RTVSPropertyOp48
 70
     1
102
RTVSPropertyOp49
 70
     1
102
RTVSPropertyOp50
 70
     1
102
RTVSPropertyOp51
 70
     0
102
RTVSPropertyOp52
 70
     0
102
RTVSPropertyOp53
 70
     1
102
RTVSPropertyOp54
 70
     1
102
RTVSPropertyOp55
 70
     1
102
RTVSPropertyOp56
 70
     1
102
RTVSPropertyOp57
 70
     1
102
RTVSPost2010Prop28
280
     0
102
RTVSPost2010PropOp28
 70
     1
102
RTVSPost2010Prop29
280
     1
102
RTVSPost2010PropOp29
 70
     1
102
RTVSPost2010Prop30
280
     1
102
RTVSPost2010PropOp30
 70
     1
102
RTVSPost2010Prop31
280
     0
102
RTVSPost2010PropOp31
 70
     1
102
RTVSPost2010Prop32
280
     0
102
RTVSPost2010PropOp32
 70
     1
102
RTVSPost2010Prop33
280
     0
102
RTVSPost2010PropOp33
 70
     1
102
RTVSPost2010Prop34
280
     0
102
RTVSPost2010PropOp34
 70
     1
102
RTVSPost2010Prop35
280
     0
102
RTVSPost2010PropOp35
 70
     1
102
RTVSPost2010Prop36
280
     0
102
RTVSPost2010PropOp36
 70
     1
102
RTVSPost2010Prop37
 90
       50
102
RTVSPost2010PropOp37
 70
     1
102
RTVSPost2010Prop38
140
0.0
102
RTVSPost2010PropOp38
 70
     1
102
RTVSPost2010Prop39
140
1.0
102
RTVSPost2010PropOp39
 70
     1
102
RTVSPost2010Prop40
 90
        0
102
RTVSPost2010PropOp40
 70
     1
102
RTVSPost2010Prop41ColorIndex
 90
       18
102
RTVSPost2010Prop41ColorRGB
 90
        0
102
RTVSPost2010PropOp41
 70
     1
102
RTVSPost2010Prop42
 90
       50
102
RTVSPost2010PropOp42
 70
     1
102
RTVSPost2010Prop43
 90
        3
102
RTVSPost2010PropOp43
 70
     1
102
RTVSPost2010Prop44ColorIndex
 90
        5
102
RTVSPost2010Prop44ColorRGB
 90
      255
102
RTVSPost2010PropOp44
 70
     1
102
RTVSPost2010Prop45
280
     0
102
RTVSPost2010PropOp45
 70
     1
102
RTVSPost2010Prop46
 90
       50
102
RTVSPost2010PropOp46
 70
     1
102
RTVSPost2010Prop47
 90
       50
102
RTVSPost2010PropOp47
 70
     1
102
RTVSPost2010Prop48
 90
       50
102
RTVSPost2010PropOp48
 70
     1
102
RTVSPost2010Prop49
280
     0
102
RTVSPost2010PropOp49
 70
     1
102
RTVSPost2010Prop50
 90
       50
102
RTVSPost2010PropOp50
 70
     1
102
RTVSPost2010Prop51ColorIndex
 90
      256
102
RTVSPost2010Prop51ColorRGB
 90
-16777216
102
RTVSPost2010PropOp51
 70
     0
102
RTVSPost2010Prop52
140
1.0
102
RTVSPost2010PropOp52
 70
     0
102
RTVSPost2010Prop53
 90
        2
102
RTVSPost2010PropOp53
 70
     1
102
RTVSPost2010Prop54
  1
strokes_ogs.tif
102
RTVSPost2010PropOp54
 70
     1
102
RTVSPost2010Prop55
280
     0
102
RTVSPost2010PropOp55
 70
     1
102
RTVSPost2010Prop56
140
1.0
102
RTVSPost2010PropOp56
 70
     1
102
RTVSPost2010Prop57
140
1.0
102
RTVSPost2010PropOp57
 70
     1
  0
XRECORD
  5
323
102
{ACAD_REACTORS
330
322
102
}
330
322
100
AcDbXrecord
280
     1
102
RTVSPropertyOp0
 70
     0
102
RTVSPropertyOp1
 70
     0
102
RTVSPropertyOp2
 70
     0
102
RTVSPropertyOp3
 70
     0
102
RTVSPropertyOp4
 70
     0
102
RTVSPropertyOp5
 70
     0
102
RTVSPropertyOp6
 70
     0
102
RTVSPropertyOp7
 70
     0
102
RTVSPropertyOp8
 70
     0
102
RTVSPropertyOp9
 70
     0
102
RTVSPropertyOp10
 70
     0
102
RTVSPropertyOp11
 70
     0
102
RTVSPropertyOp12
 70
     0
102
RTVSPropertyOp13
 70
     0
102
RTVSPropertyOp14
 70
     2
102
RTVSPropertyOp15
 70
     0
102
RTVSPropertyOp16
 70
     0
102
RTVSPropertyOp17
 70
     0
102
RTVSPropertyOp18
 70
     0
102
RTVSPropertyOp19
 70
     0
102
RTVSPropertyOp20
 70
     0
102
RTVSPropertyOp21
 70
     0
102
RTVSPropertyOp22
 70
     0
102
RTVSPropertyOp23
 70
     0
102
RTVSPropertyOp24
 70
     0
102
RTVSPropertyOp25
 70
     0
102
RTVSPropertyOp26
 70
     0
102
RTVSPropertyOp27
 70
     0
102
RTVSPropertyOp28
 70
     0
102
RTVSPropertyOp29
 70
     0
102
RTVSPropertyOp30
 70
     0
102
RTVSPropertyOp31
 70
     0
102
RTVSPropertyOp32
 70
     0
102
RTVSPropertyOp33
 70
     0
102
RTVSPropertyOp34
 70
     0
102
RTVSPropertyOp35
 70
     0
102
RTVSPropertyOp36
 70
     0
102
RTVSPropertyOp37
 70
     0
102
RTVSPropertyOp38
 70
     0
102
RTVSPropertyOp39
 70
     0
102
RTVSPropertyOp40
 70
     0
102
RTVSPropertyOp41
 70
     0
102
RTVSPropertyOp42
 70
     0
102
RTVSPropertyOp43
 70
     0
102
RTVSPropertyOp44
 70
     0
102
RTVSPropertyOp45
 70
     0
102
RTVSPropertyOp46
 70
     0
102
RTVSPropertyOp47
 70
     0
102
RTVSPropertyOp48
 70
     0
102
RTVSPropertyOp49
 70
     0
102
RTVSPropertyOp50
 70
     0
102
RTVSPropertyOp51
 70
     0
102
RTVSPropertyOp52
 70
     0
102
RTVSPropertyOp53
 70
     0
102
RTVSPropertyOp54
 70
     0
102
RTVSPropertyOp55
 70
     0
102
RTVSPropertyOp56
 70
     0
102
RTVSPropertyOp57
 70
     0
102
RTVSPost2010Prop28
280
     0
102
RTVSPost2010PropOp28
 70
     0
102
RTVSPost2010Prop29
280
     1
102
RTVSPost2010PropOp29
 70
     0
102
RTVSPost2010Prop30
280
     1
102
RTVSPost2010PropOp30
 70
     0
102
RTVSPost2010Prop31
280
     0
102
RTVSPost2010PropOp31
 70
     0
102
RTVSPost2010Prop32
280
     0
102
RTVSPost2010PropOp32
 70
     0
102
RTVSPost2010Prop33
280
     0
102
RTVSPost2010PropOp33
 70
     0
102
RTVSPost2010Prop34
280
     0
102
RTVSPost2010PropOp34
 70
     0
102
RTVSPost2010Prop35
280
     0
102
RTVSPost2010PropOp35
 70
     0
102
RTVSPost2010Prop36
280
     0
102
RTVSPost2010PropOp36
 70
     0
102
RTVSPost2010Prop37
 90
       50
102
RTVSPost2010PropOp37
 70
     0
102
RTVSPost2010Prop38
140
0.0
102
RTVSPost2010PropOp38
 70
     0
102
RTVSPost2010Prop39
140
1.0
102
RTVSPost2010PropOp39
 70
     0
102
RTVSPost2010Prop40
 90
        0
102
RTVSPost2010PropOp40
 70
     0
102
RTVSPost2010Prop41ColorIndex
 90
       18
102
RTVSPost2010Prop41ColorRGB
 90
        0
102
RTVSPost2010PropOp41
 70
     0
102
RTVSPost2010Prop42
 90
       50
102
RTVSPost2010PropOp42
 70
     0
102
RTVSPost2010Prop43
 90
        3
102
RTVSPost2010PropOp43
 70
     0
102
RTVSPost2010Prop44ColorIndex
 90
        5
102
RTVSPost2010Prop44ColorRGB
 90
      255
102
RTVSPost2010PropOp44
 70
     0
102
RTVSPost2010Prop45
280
     0
102
RTVSPost2010PropOp45
 70
     0
102
RTVSPost2010Prop46
 90
       50
102
RTVSPost2010PropOp46
 70
     0
102
RTVSPost2010Prop47
 90
       50
102
RTVSPost2010PropOp47
 70
     0
102
RTVSPost2010Prop48
 90
       50
102
RTVSPost2010PropOp48
 70
     0
102
RTVSPost2010Prop49
280
     0
102
RTVSPost2010PropOp49
 70
     0
102
RTVSPost2010Prop50
 90
       50
102
RTVSPost2010PropOp50
 70
     0
102
RTVSPost2010Prop51ColorIndex
 90
      256
102
RTVSPost2010Prop51ColorRGB
 90
-16777216
102
RTVSPost2010PropOp51
 70
     0
102
RTVSPost2010Prop52
140
1.0
102
RTVSPost2010PropOp52
 70
     0
102
RTVSPost2010Prop53
 90
        2
102
RTVSPost2010PropOp53
 70
     0
102
RTVSPost2010Prop54
  1
strokes_ogs.tif
102
RTVSPost2010PropOp54
 70
     0
102
RTVSPost2010Prop55
280
     0
102
RTVSPost2010PropOp55
 70
     0
102
RTVSPost2010Prop56
140
1.0
102
RTVSPost2010PropOp56
 70
     0
102
RTVSPost2010Prop57
140
1.0
102
RTVSPost2010PropOp57
 70
     0
  0
XRECORD
  5
31D
102
{ACAD_REACTORS
330
31C
102
}
330
31C
100
AcDbXrecord
280
     1
102
RTVSPropertyOp0
 70
     1
102
RTVSPropertyOp1
 70
     1
102
RTVSPropertyOp2
 70
     1
102
RTVSPropertyOp3
 70
     1
102
RTVSPropertyOp4
 70
     1
102
RTVSPropertyOp5
 70
     1
102
RTVSPropertyOp6
 70
     1
102
RTVSPropertyOp7
 70
     1
102
RTVSPropertyOp8
 70
     1
102
RTVSPropertyOp9
 70
     1
102
RTVSPropertyOp10
 70
     1
102
RTVSPropertyOp11
 70
     1
102
RTVSPropertyOp12
 70
     1
102
RTVSPropertyOp13
 70
     1
102
RTVSPropertyOp14
 70
     1
102
RTVSPropertyOp15
 70
     1
102
RTVSPropertyOp16
 70
     1
102
RTVSPropertyOp17
 70
     1
102
RTVSPropertyOp18
 70
     1
102
RTVSPropertyOp19
 70
     1
102
RTVSPropertyOp20
 70
     1
102
RTVSPropertyOp21
 70
     1
102
RTVSPropertyOp22
 70
     1
102
RTVSPropertyOp23
 70
     1
102
RTVSPropertyOp24
 70
     1
102
RTVSPropertyOp25
 70
     1
102
RTVSPropertyOp26
 70
     1
102
RTVSPropertyOp27
 70
     1
102
RTVSPropertyOp28
 70
     1
102
RTVSPropertyOp29
 70
     1
102
RTVSPropertyOp30
 70
     1
102
RTVSPropertyOp31
 70
     1
102
RTVSPropertyOp32
 70
     1
102
RTVSPropertyOp33
 70
     1
102
RTVSPropertyOp34
 70
     1
102
RTVSPropertyOp35
 70
     1
102
RTVSPropertyOp36
 70
     1
102
RTVSPropertyOp37
 70
     1
102
RTVSPropertyOp38
 70
     1
102
RTVSPropertyOp39
 70
     1
102
RTVSPropertyOp40
 70
     1
102
RTVSPropertyOp41
 70
     1
102
RTVSPropertyOp42
 70
     1
102
RTVSPropertyOp43
 70
     1
102
RTVSPropertyOp44
 70
     1
102
RTVSPropertyOp45
 70
     1
102
RTVSPropertyOp46
 70
     1
102
RTVSPropertyOp47
 70
     1
102
RTVSPropertyOp48
 70
     1
102
RTVSPropertyOp49
 70
     1
102
RTVSPropertyOp50
 70
     1
102
RTVSPropertyOp51
 70
     0
102
RTVSPropertyOp52
 70
     0
102
RTVSPropertyOp53
 70
     1
102
RTVSPropertyOp54
 70
     1
102
RTVSPropertyOp55
 70
     1
102
RTVSPropertyOp56
 70
     1
102
RTVSPropertyOp57
 70
     1
102
RTVSPost2010Prop28
280
     0
102
RTVSPost2010PropOp28
 70
     1
102
RTVSPost2010Prop29
280
     1
102
RTVSPost2010PropOp29
 70
     1
102
RTVSPost2010Prop30
280
     1
102
RTVSPost2010PropOp30
 70
     1
102
RTVSPost2010Prop31
280
     0
102
RTVSPost2010PropOp31
 70
     1
102
RTVSPost2010Prop32
280
     0
102
RTVSPost2010PropOp32
 70
     1
102
RTVSPost2010Prop33
280
     0
102
RTVSPost2010PropOp33
 70
     1
102
RTVSPost2010Prop34
280
     0
102
RTVSPost2010PropOp34
 70
     1
102
RTVSPost2010Prop35
280
     0
102
RTVSPost2010PropOp35
 70
     1
102
RTVSPost2010Prop36
280
     0
102
RTVSPost2010PropOp36
 70
     1
102
RTVSPost2010Prop37
 90
       50
102
RTVSPost2010PropOp37
 70
     1
102
RTVSPost2010Prop38
140
0.0
102
RTVSPost2010PropOp38
 70
     1
102
RTVSPost2010Prop39
140
1.0
102
RTVSPost2010PropOp39
 70
     1
102
RTVSPost2010Prop40
 90
        0
102
RTVSPost2010PropOp40
 70
     1
102
RTVSPost2010Prop41ColorIndex
 90
       18
102
RTVSPost2010Prop41ColorRGB
 90
        0
102
RTVSPost2010PropOp41
 70
     1
102
RTVSPost2010Prop42
 90
       50
102
RTVSPost2010PropOp42
 70
     1
102
RTVSPost2010Prop43
 90
        3
102
RTVSPost2010PropOp43
 70
     1
102
RTVSPost2010Prop44ColorIndex
 90
        5
102
RTVSPost2010Prop44ColorRGB
 90
      255
102
RTVSPost2010PropOp44
 70
     1
102
RTVSPost2010Prop45
280
     0
102
RTVSPost2010PropOp45
 70
     1
102
RTVSPost2010Prop46
 90
       50
102
RTVSPost2010PropOp46
 70
     1
102
RTVSPost2010Prop47
 90
       50
102
RTVSPost2010PropOp47
 70
     1
102
RTVSPost2010Prop48
 90
       50
102
RTVSPost2010PropOp48
 70
     1
102
RTVSPost2010Prop49
280
     0
102
RTVSPost2010PropOp49
 70
     1
102
RTVSPost2010Prop50
 90
       50
102
RTVSPost2010PropOp50
 70
     1
102
RTVSPost2010Prop51ColorIndex
 90
      256
102
RTVSPost2010Prop51ColorRGB
 90
-16777216
102
RTVSPost2010PropOp51
 70
     0
102
RTVSPost2010Prop52
140
1.0
102
RTVSPost2010PropOp52
 70
     0
102
RTVSPost2010Prop53
 90
        2
102
RTVSPost2010PropOp53
 70
     1
102
RTVSPost2010Prop54
  1
strokes_ogs.tif
102
RTVSPost2010PropOp54
 70
     1
102
RTVSPost2010Prop55
280
     0
102
RTVSPost2010PropOp55
 70
     1
102
RTVSPost2010Prop56
140
1.0
102
RTVSPost2010PropOp56
 70
     1
102
RTVSPost2010Prop57
140
1.0
102
RTVSPost2010PropOp57
 70
     1
  0
XRECORD
  5
325
102
{ACAD_REACTORS
330
324
102
}
330
324
100
AcDbXrecord
280
     1
102
RTVSPropertyOp0
 70
     0
102
RTVSPropertyOp1
 70
     0
102
RTVSPropertyOp2
 70
     0
102
RTVSPropertyOp3
 70
     0
102
RTVSPropertyOp4
 70
     0
102
RTVSPropertyOp5
 70
     0
102
RTVSPropertyOp6
 70
     0
102
RTVSPropertyOp7
 70
     0
102
RTVSPropertyOp8
 70
     0
102
RTVSPropertyOp9
 70
     0
102
RTVSPropertyOp10
 70
     0
102
RTVSPropertyOp11
 70
     0
102
RTVSPropertyOp12
 70
     0
102
RTVSPropertyOp13
 70
     0
102
RTVSPropertyOp14
 70
     2
102
RTVSPropertyOp15
 70
     0
102
RTVSPropertyOp16
 70
     0
102
RTVSPropertyOp17
 70
     0
102
RTVSPropertyOp18
 70
     0
102
RTVSPropertyOp19
 70
     0
102
RTVSPropertyOp20
 70
     0
102
RTVSPropertyOp21
 70
     0
102
RTVSPropertyOp22
 70
     0
102
RTVSPropertyOp23
 70
     0
102
RTVSPropertyOp24
 70
     0
102
RTVSPropertyOp25
 70
     0
102
RTVSPropertyOp26
 70
     0
102
RTVSPropertyOp27
 70
     0
102
RTVSPropertyOp28
 70
     0
102
RTVSPropertyOp29
 70
     0
102
RTVSPropertyOp30
 70
     0
102
RTVSPropertyOp31
 70
     0
102
RTVSPropertyOp32
 70
     0
102
RTVSPropertyOp33
 70
     0
102
RTVSPropertyOp34
 70
     0
102
RTVSPropertyOp35
 70
     0
102
RTVSPropertyOp36
 70
     0
102
RTVSPropertyOp37
 70
     0
102
RTVSPropertyOp38
 70
     0
102
RTVSPropertyOp39
 70
     0
102
RTVSPropertyOp40
 70
     0
102
RTVSPropertyOp41
 70
     0
102
RTVSPropertyOp42
 70
     0
102
RTVSPropertyOp43
 70
     0
102
RTVSPropertyOp44
 70
     0
102
RTVSPropertyOp45
 70
     0
102
RTVSPropertyOp46
 70
     0
102
RTVSPropertyOp47
 70
     0
102
RTVSPropertyOp48
 70
     0
102
RTVSPropertyOp49
 70
     0
102
RTVSPropertyOp50
 70
     0
102
RTVSPropertyOp51
 70
     0
102
RTVSPropertyOp52
 70
     0
102
RTVSPropertyOp53
 70
     0
102
RTVSPropertyOp54
 70
     0
102
RTVSPropertyOp55
 70
     0
102
RTVSPropertyOp56
 70
     0
102
RTVSPropertyOp57
 70
     0
102
RTVSPost2010Prop28
280
     0
102
RTVSPost2010PropOp28
 70
     0
102
RTVSPost2010Prop29
280
     1
102
RTVSPost2010PropOp29
 70
     0
102
RTVSPost2010Prop30
280
     1
102
RTVSPost2010PropOp30
 70
     0
102
RTVSPost2010Prop31
280
     0
102
RTVSPost2010PropOp31
 70
     0
102
RTVSPost2010Prop32
280
     0
102
RTVSPost2010PropOp32
 70
     0
102
RTVSPost2010Prop33
280
     0
102
RTVSPost2010PropOp33
 70
     0
102
RTVSPost2010Prop34
280
     0
102
RTVSPost2010PropOp34
 70
     0
102
RTVSPost2010Prop35
280
     0
102
RTVSPost2010PropOp35
 70
     0
102
RTVSPost2010Prop36
280
     0
102
RTVSPost2010PropOp36
 70
     0
102
RTVSPost2010Prop37
 90
       50
102
RTVSPost2010PropOp37
 70
     0
102
RTVSPost2010Prop38
140
0.0
102
RTVSPost2010PropOp38
 70
     0
102
RTVSPost2010Prop39
140
1.0
102
RTVSPost2010PropOp39
 70
     0
102
RTVSPost2010Prop40
 90
        0
102
RTVSPost2010PropOp40
 70
     0
102
RTVSPost2010Prop41ColorIndex
 90
       18
102
RTVSPost2010Prop41ColorRGB
 90
        0
102
RTVSPost2010PropOp41
 70
     0
102
RTVSPost2010Prop42
 90
       50
102
RTVSPost2010PropOp42
 70
     0
102
RTVSPost2010Prop43
 90
        3
102
RTVSPost2010PropOp43
 70
     0
102
RTVSPost2010Prop44ColorIndex
 90
        5
102
RTVSPost2010Prop44ColorRGB
 90
      255
102
RTVSPost2010PropOp44
 70
     0
102
RTVSPost2010Prop45
280
     0
102
RTVSPost2010PropOp45
 70
     0
102
RTVSPost2010Prop46
 90
       50
102
RTVSPost2010PropOp46
 70
     0
102
RTVSPost2010Prop47
 90
       50
102
RTVSPost2010PropOp47
 70
     0
102
RTVSPost2010Prop48
 90
       50
102
RTVSPost2010PropOp48
 70
     0
102
RTVSPost2010Prop49
280
     0
102
RTVSPost2010PropOp49
 70
     0
102
RTVSPost2010Prop50
 90
       50
102
RTVSPost2010PropOp50
 70
     0
102
RTVSPost2010Prop51ColorIndex
 90
      256
102
RTVSPost2010Prop51ColorRGB
 90
-16777216
102
RTVSPost2010PropOp51
 70
     0
102
RTVSPost2010Prop52
140
1.0
102
RTVSPost2010PropOp52
 70
     0
102
RTVSPost2010Prop53
 90
        2
102
RTVSPost2010PropOp53
 70
     0
102
RTVSPost2010Prop54
  1
strokes_ogs.tif
102
RTVSPost2010PropOp54
 70
     0
102
RTVSPost2010Prop55
280
     0
102
RTVSPost2010PropOp55
 70
     0
102
RTVSPost2010Prop56
140
1.0
102
RTVSPost2010PropOp56
 70
     0
102
RTVSPost2010Prop57
140
1.0
102
RTVSPost2010PropOp57
 70
     0
  0
XRECORD
  5
313
102
{ACAD_REACTORS
330
312
102
}
330
312
100
AcDbXrecord
280
     1
102
RTVSPropertyOp0
 70
     1
102
RTVSPropertyOp1
 70
     1
102
RTVSPropertyOp2
 70
     1
102
RTVSPropertyOp3
 70
     1
102
RTVSPropertyOp4
 70
     1
102
RTVSPropertyOp5
 70
     1
102
RTVSPropertyOp6
 70
     1
102
RTVSPropertyOp7
 70
     1
102
RTVSPropertyOp8
 70
     1
102
RTVSPropertyOp9
 70
     1
102
RTVSPropertyOp10
 70
     1
102
RTVSPropertyOp11
 70
     1
102
RTVSPropertyOp12
 70
     1
102
RTVSPropertyOp13
 70
     1
102
RTVSPropertyOp14
 70
     1
102
RTVSPropertyOp15
 70
     1
102
RTVSPropertyOp16
 70
     1
102
RTVSPropertyOp17
 70
     1
102
RTVSPropertyOp18
 70
     1
102
RTVSPropertyOp19
 70
     1
102
RTVSPropertyOp20
 70
     1
102
RTVSPropertyOp21
 70
     1
102
RTVSPropertyOp22
 70
     1
102
RTVSPropertyOp23
 70
     1
102
RTVSPropertyOp24
 70
     1
102
RTVSPropertyOp25
 70
     1
102
RTVSPropertyOp26
 70
     1
102
RTVSPropertyOp27
 70
     1
102
RTVSPropertyOp28
 70
     1
102
RTVSPropertyOp29
 70
     1
102
RTVSPropertyOp30
 70
     1
102
RTVSPropertyOp31
 70
     1
102
RTVSPropertyOp32
 70
     1
102
RTVSPropertyOp33
 70
     1
102
RTVSPropertyOp34
 70
     1
102
RTVSPropertyOp35
 70
     1
102
RTVSPropertyOp36
 70
     1
102
RTVSPropertyOp37
 70
     1
102
RTVSPropertyOp38
 70
     1
102
RTVSPropertyOp39
 70
     1
102
RTVSPropertyOp40
 70
     1
102
RTVSPropertyOp41
 70
     1
102
RTVSPropertyOp42
 70
     1
102
RTVSPropertyOp43
 70
     1
102
RTVSPropertyOp44
 70
     1
102
RTVSPropertyOp45
 70
     1
102
RTVSPropertyOp46
 70
     1
102
RTVSPropertyOp47
 70
     1
102
RTVSPropertyOp48
 70
     1
102
RTVSPropertyOp49
 70
     1
102
RTVSPropertyOp50
 70
     1
102
RTVSPropertyOp51
 70
     0
102
RTVSPropertyOp52
 70
     0
102
RTVSPropertyOp53
 70
     1
102
RTVSPropertyOp54
 70
     1
102
RTVSPropertyOp55
 70
     1
102
RTVSPropertyOp56
 70
     1
102
RTVSPropertyOp57
 70
     1
102
RTVSPost2010Prop28
280
     0
102
RTVSPost2010PropOp28
 70
     1
102
RTVSPost2010Prop29
280
     1
102
RTVSPost2010PropOp29
 70
     1
102
RTVSPost2010Prop30
280
     1
102
RTVSPost2010PropOp30
 70
     1
102
RTVSPost2010Prop31
280
     0
102
RTVSPost2010PropOp31
 70
     1
102
RTVSPost2010Prop32
280
     0
102
RTVSPost2010PropOp32
 70
     1
102
RTVSPost2010Prop33
280
     0
102
RTVSPost2010PropOp33
 70
     1
102
RTVSPost2010Prop34
280
     0
102
RTVSPost2010PropOp34
 70
     1
102
RTVSPost2010Prop35
280
     0
102
RTVSPost2010PropOp35
 70
     1
102
RTVSPost2010Prop36
280
     0
102
RTVSPost2010PropOp36
 70
     1
102
RTVSPost2010Prop37
 90
       50
102
RTVSPost2010PropOp37
 70
     1
102
RTVSPost2010Prop38
140
0.0
102
RTVSPost2010PropOp38
 70
     1
102
RTVSPost2010Prop39
140
1.0
102
RTVSPost2010PropOp39
 70
     1
102
RTVSPost2010Prop40
 90
        0
102
RTVSPost2010PropOp40
 70
     1
102
RTVSPost2010Prop41ColorIndex
 90
       18
102
RTVSPost2010Prop41ColorRGB
 90
        0
102
RTVSPost2010PropOp41
 70
     1
102
RTVSPost2010Prop42
 90
       50
102
RTVSPost2010PropOp42
 70
     1
102
RTVSPost2010Prop43
 90
        3
102
RTVSPost2010PropOp43
 70
     1
102
RTVSPost2010Prop44ColorIndex
 90
        5
102
RTVSPost2010Prop44ColorRGB
 90
      255
102
RTVSPost2010PropOp44
 70
     1
102
RTVSPost2010Prop45
280
     0
102
RTVSPost2010PropOp45
 70
     1
102
RTVSPost2010Prop46
 90
       50
102
RTVSPost2010PropOp46
 70
     1
102
RTVSPost2010Prop47
 90
       50
102
RTVSPost2010PropOp47
 70
     1
102
RTVSPost2010Prop48
 90
       50
102
RTVSPost2010PropOp48
 70
     1
102
RTVSPost2010Prop49
280
     0
102
RTVSPost2010PropOp49
 70
     1
102
RTVSPost2010Prop50
 90
       50
102
RTVSPost2010PropOp50
 70
     1
102
RTVSPost2010Prop51ColorIndex
 90
      256
102
RTVSPost2010Prop51ColorRGB
 90
-16777216
102
RTVSPost2010PropOp51
 70
     0
102
RTVSPost2010Prop52
140
1.0
102
RTVSPost2010PropOp52
 70
     0
102
RTVSPost2010Prop53
 90
        2
102
RTVSPost2010PropOp53
 70
     1
102
RTVSPost2010Prop54
  1
strokes_ogs.tif
102
RTVSPost2010PropOp54
 70
     1
102
RTVSPost2010Prop55
280
     0
102
RTVSPost2010PropOp55
 70
     1
102
RTVSPost2010Prop56
140
1.0
102
RTVSPost2010PropOp56
 70
     1
102
RTVSPost2010Prop57
140
1.0
102
RTVSPost2010PropOp57
 70
     1
  0
XRECORD
  5
331
102
{ACAD_REACTORS
330
330
102
}
330
330
100
AcDbXrecord
280
     1
102
RTVSPropertyOp0
 70
     1
102
RTVSPropertyOp1
 70
     1
102
RTVSPropertyOp2
 70
     1
102
RTVSPropertyOp3
 70
     1
102
RTVSPropertyOp4
 70
     1
102
RTVSPropertyOp5
 70
     1
102
RTVSPropertyOp6
 70
     1
102
RTVSPropertyOp7
 70
     1
102
RTVSPropertyOp8
 70
     1
102
RTVSPropertyOp9
 70
     1
102
RTVSPropertyOp10
 70
     1
102
RTVSPropertyOp11
 70
     1
102
RTVSPropertyOp12
 70
     1
102
RTVSPropertyOp13
 70
     1
102
RTVSPropertyOp14
 70
     1
102
RTVSPropertyOp15
 70
     1
102
RTVSPropertyOp16
 70
     1
102
RTVSPropertyOp17
 70
     1
102
RTVSPropertyOp18
 70
     1
102
RTVSPropertyOp19
 70
     1
102
RTVSPropertyOp20
 70
     1
102
RTVSPropertyOp21
 70
     1
102
RTVSPropertyOp22
 70
     1
102
RTVSPropertyOp23
 70
     1
102
RTVSPropertyOp24
 70
     1
102
RTVSPropertyOp25
 70
     1
102
RTVSPropertyOp26
 70
     1
102
RTVSPropertyOp27
 70
     1
102
RTVSPropertyOp28
 70
     1
102
RTVSPropertyOp29
 70
     1
102
RTVSPropertyOp30
 70
     1
102
RTVSPropertyOp31
 70
     1
102
RTVSPropertyOp32
 70
     1
102
RTVSPropertyOp33
 70
     1
102
RTVSPropertyOp34
 70
     1
102
RTVSPropertyOp35
 70
     1
102
RTVSPropertyOp36
 70
     1
102
RTVSPropertyOp37
 70
     1
102
RTVSPropertyOp38
 70
     1
102
RTVSPropertyOp39
 70
     1
102
RTVSPropertyOp40
 70
     1
102
RTVSPropertyOp41
 70
     1
102
RTVSPropertyOp42
 70
     1
102
RTVSPropertyOp43
 70
     1
102
RTVSPropertyOp44
 70
     1
102
RTVSPropertyOp45
 70
     1
102
RTVSPropertyOp46
 70
     1
102
RTVSPropertyOp47
 70
     1
102
RTVSPropertyOp48
 70
     1
102
RTVSPropertyOp49
 70
     1
102
RTVSPropertyOp50
 70
     1
102
RTVSPropertyOp51
 70
     0
102
RTVSPropertyOp52
 70
     0
102
RTVSPropertyOp53
 70
     1
102
RTVSPropertyOp54
 70
     1
102
RTVSPropertyOp55
 70
     1
102
RTVSPropertyOp56
 70
     1
102
RTVSPropertyOp57
 70
     1
102
RTVSPost2010Prop28
280
     0
102
RTVSPost2010PropOp28
 70
     1
102
RTVSPost2010Prop29
280
     1
102
RTVSPost2010PropOp29
 70
     1
102
RTVSPost2010Prop30
280
     1
102
RTVSPost2010PropOp30
 70
     1
102
RTVSPost2010Prop31
280
     0
102
RTVSPost2010PropOp31
 70
     1
102
RTVSPost2010Prop32
280
     0
102
RTVSPost2010PropOp32
 70
     1
102
RTVSPost2010Prop33
280
     0
102
RTVSPost2010PropOp33
 70
     1
102
RTVSPost2010Prop34
280
     0
102
RTVSPost2010PropOp34
 70
     1
102
RTVSPost2010Prop35
280
     0
102
RTVSPost2010PropOp35
 70
     1
102
RTVSPost2010Prop36
280
     0
102
RTVSPost2010PropOp36
 70
     1
102
RTVSPost2010Prop37
 90
       50
102
RTVSPost2010PropOp37
 70
     1
102
RTVSPost2010Prop38
140
0.0
102
RTVSPost2010PropOp38
 70
     1
102
RTVSPost2010Prop39
140
1.0
102
RTVSPost2010PropOp39
 70
     1
102
RTVSPost2010Prop40
 90
        0
102
RTVSPost2010PropOp40
 70
     1
102
RTVSPost2010Prop41ColorIndex
 90
       18
102
RTVSPost2010Prop41ColorRGB
 90
        0
102
RTVSPost2010PropOp41
 70
     1
102
RTVSPost2010Prop42
 90
       50
102
RTVSPost2010PropOp42
 70
     1
102
RTVSPost2010Prop43
 90
        3
102
RTVSPost2010PropOp43
 70
     1
102
RTVSPost2010Prop44ColorIndex
 90
        5
102
RTVSPost2010Prop44ColorRGB
 90
      255
102
RTVSPost2010PropOp44
 70
     1
102
RTVSPost2010Prop45
280
     0
102
RTVSPost2010PropOp45
 70
     1
102
RTVSPost2010Prop46
 90
       50
102
RTVSPost2010PropOp46
 70
     1
102
RTVSPost2010Prop47
 90
       50
102
RTVSPost2010PropOp47
 70
     1
102
RTVSPost2010Prop48
 90
       50
102
RTVSPost2010PropOp48
 70
     1
102
RTVSPost2010Prop49
280
     0
102
RTVSPost2010PropOp49
 70
     1
102
RTVSPost2010Prop50
 90
       50
102
RTVSPost2010PropOp50
 70
     1
102
RTVSPost2010Prop51ColorIndex
 90
      256
102
RTVSPost2010Prop51ColorRGB
 90
-16777216
102
RTVSPost2010PropOp51
 70
     0
102
RTVSPost2010Prop52
140
1.0
102
RTVSPost2010PropOp52
 70
     0
102
RTVSPost2010Prop53
 90
        2
102
RTVSPost2010PropOp53
 70
     1
102
RTVSPost2010Prop54
  1
strokes_ogs.tif
102
RTVSPost2010PropOp54
 70
     1
102
RTVSPost2010Prop55
280
     0
102
RTVSPost2010PropOp55
 70
     1
102
RTVSPost2010Prop56
140
1.0
102
RTVSPost2010PropOp56
 70
     1
102
RTVSPost2010Prop57
140
1.0
102
RTVSPost2010PropOp57
 70
     1
  0
XRECORD
  5
32F
102
{ACAD_REACTORS
330
32E
102
}
330
32E
100
AcDbXrecord
280
     1
102
RTVSPropertyOp0
 70
     1
102
RTVSPropertyOp1
 70
     1
102
RTVSPropertyOp2
 70
     1
102
RTVSPropertyOp3
 70
     1
102
RTVSPropertyOp4
 70
     1
102
RTVSPropertyOp5
 70
     1
102
RTVSPropertyOp6
 70
     1
102
RTVSPropertyOp7
 70
     1
102
RTVSPropertyOp8
 70
     1
102
RTVSPropertyOp9
 70
     1
102
RTVSPropertyOp10
 70
     1
102
RTVSPropertyOp11
 70
     1
102
RTVSPropertyOp12
 70
     1
102
RTVSPropertyOp13
 70
     1
102
RTVSPropertyOp14
 70
     1
102
RTVSPropertyOp15
 70
     1
102
RTVSPropertyOp16
 70
     1
102
RTVSPropertyOp17
 70
     1
102
RTVSPropertyOp18
 70
     1
102
RTVSPropertyOp19
 70
     1
102
RTVSPropertyOp20
 70
     1
102
RTVSPropertyOp21
 70
     1
102
RTVSPropertyOp22
 70
     1
102
RTVSPropertyOp23
 70
     1
102
RTVSPropertyOp24
 70
     1
102
RTVSPropertyOp25
 70
     1
102
RTVSPropertyOp26
 70
     1
102
RTVSPropertyOp27
 70
     1
102
RTVSPropertyOp28
 70
     1
102
RTVSPropertyOp29
 70
     1
102
RTVSPropertyOp30
 70
     1
102
RTVSPropertyOp31
 70
     1
102
RTVSPropertyOp32
 70
     1
102
RTVSPropertyOp33
 70
     1
102
RTVSPropertyOp34
 70
     1
102
RTVSPropertyOp35
 70
     1
102
RTVSPropertyOp36
 70
     1
102
RTVSPropertyOp37
 70
     1
102
RTVSPropertyOp38
 70
     1
102
RTVSPropertyOp39
 70
     1
102
RTVSPropertyOp40
 70
     1
102
RTVSPropertyOp41
 70
     1
102
RTVSPropertyOp42
 70
     1
102
RTVSPropertyOp43
 70
     1
102
RTVSPropertyOp44
 70
     1
102
RTVSPropertyOp45
 70
     1
102
RTVSPropertyOp46
 70
     1
102
RTVSPropertyOp47
 70
     1
102
RTVSPropertyOp48
 70
     1
102
RTVSPropertyOp49
 70
     1
102
RTVSPropertyOp50
 70
     1
102
RTVSPropertyOp51
 70
     0
102
RTVSPropertyOp52
 70
     0
102
RTVSPropertyOp53
 70
     1
102
RTVSPropertyOp54
 70
     1
102
RTVSPropertyOp55
 70
     1
102
RTVSPropertyOp56
 70
     1
102
RTVSPropertyOp57
 70
     1
102
RTVSPost2010Prop28
280
     0
102
RTVSPost2010PropOp28
 70
     1
102
RTVSPost2010Prop29
280
     1
102
RTVSPost2010PropOp29
 70
     1
102
RTVSPost2010Prop30
280
     1
102
RTVSPost2010PropOp30
 70
     1
102
RTVSPost2010Prop31
280
     0
102
RTVSPost2010PropOp31
 70
     1
102
RTVSPost2010Prop32
280
     0
102
RTVSPost2010PropOp32
 70
     1
102
RTVSPost2010Prop33
280
     0
102
RTVSPost2010PropOp33
 70
     1
102
RTVSPost2010Prop34
280
     0
102
RTVSPost2010PropOp34
 70
     1
102
RTVSPost2010Prop35
280
     0
102
RTVSPost2010PropOp35
 70
     1
102
RTVSPost2010Prop36
280
     0
102
RTVSPost2010PropOp36
 70
     1
102
RTVSPost2010Prop37
 90
       50
102
RTVSPost2010PropOp37
 70
     1
102
RTVSPost2010Prop38
140
0.0
102
RTVSPost2010PropOp38
 70
     1
102
RTVSPost2010Prop39
140
1.0
102
RTVSPost2010PropOp39
 70
     1
102
RTVSPost2010Prop40
 90
        0
102
RTVSPost2010PropOp40
 70
     1
102
RTVSPost2010Prop41ColorIndex
 90
       18
102
RTVSPost2010Prop41ColorRGB
 90
        0
102
RTVSPost2010PropOp41
 70
     1
102
RTVSPost2010Prop42
 90
       50
102
RTVSPost2010PropOp42
 70
     1
102
RTVSPost2010Prop43
 90
        3
102
RTVSPost2010PropOp43
 70
     1
102
RTVSPost2010Prop44ColorIndex
 90
        5
102
RTVSPost2010Prop44ColorRGB
 90
      255
102
RTVSPost2010PropOp44
 70
     1
102
RTVSPost2010Prop45
280
     0
102
RTVSPost2010PropOp45
 70
     1
102
RTVSPost2010Prop46
 90
       50
102
RTVSPost2010PropOp46
 70
     1
102
RTVSPost2010Prop47
 90
       50
102
RTVSPost2010PropOp47
 70
     1
102
RTVSPost2010Prop48
 90
       50
102
RTVSPost2010PropOp48
 70
     1
102
RTVSPost2010Prop49
280
     0
102
RTVSPost2010PropOp49
 70
     1
102
RTVSPost2010Prop50
 90
       50
102
RTVSPost2010PropOp50
 70
     1
102
RTVSPost2010Prop51ColorIndex
 90
      256
102
RTVSPost2010Prop51ColorRGB
 90
-16777216
102
RTVSPost2010PropOp51
 70
     0
102
RTVSPost2010Prop52
140
1.0
102
RTVSPost2010PropOp52
 70
     0
102
RTVSPost2010Prop53
 90
        2
102
RTVSPost2010PropOp53
 70
     1
102
RTVSPost2010Prop54
  1
strokes_ogs.tif
102
RTVSPost2010PropOp54
 70
     1
102
RTVSPost2010Prop55
280
     0
102
RTVSPost2010PropOp55
 70
     1
102
RTVSPost2010Prop56
140
1.0
102
RTVSPost2010PropOp56
 70
     1
102
RTVSPost2010Prop57
140
1.0
102
RTVSPost2010PropOp57
 70
     1
  0
XRECORD
  5
329
102
{ACAD_REACTORS
330
328
102
}
330
328
100
AcDbXrecord
280
     1
102
RTVSPropertyOp0
 70
     1
102
RTVSPropertyOp1
 70
     1
102
RTVSPropertyOp2
 70
     1
102
RTVSPropertyOp3
 70
     1
102
RTVSPropertyOp4
 70
     1
102
RTVSPropertyOp5
 70
     1
102
RTVSPropertyOp6
 70
     1
102
RTVSPropertyOp7
 70
     1
102
RTVSPropertyOp8
 70
     1
102
RTVSPropertyOp9
 70
     1
102
RTVSPropertyOp10
 70
     1
102
RTVSPropertyOp11
 70
     1
102
RTVSPropertyOp12
 70
     1
102
RTVSPropertyOp13
 70
     1
102
RTVSPropertyOp14
 70
     1
102
RTVSPropertyOp15
 70
     1
102
RTVSPropertyOp16
 70
     1
102
RTVSPropertyOp17
 70
     1
102
RTVSPropertyOp18
 70
     1
102
RTVSPropertyOp19
 70
     1
102
RTVSPropertyOp20
 70
     1
102
RTVSPropertyOp21
 70
     1
102
RTVSPropertyOp22
 70
     1
102
RTVSPropertyOp23
 70
     1
102
RTVSPropertyOp24
 70
     1
102
RTVSPropertyOp25
 70
     1
102
RTVSPropertyOp26
 70
     1
102
RTVSPropertyOp27
 70
     1
102
RTVSPropertyOp28
 70
     1
102
RTVSPropertyOp29
 70
     1
102
RTVSPropertyOp30
 70
     1
102
RTVSPropertyOp31
 70
     1
102
RTVSPropertyOp32
 70
     1
102
RTVSPropertyOp33
 70
     1
102
RTVSPropertyOp34
 70
     1
102
RTVSPropertyOp35
 70
     1
102
RTVSPropertyOp36
 70
     1
102
RTVSPropertyOp37
 70
     1
102
RTVSPropertyOp38
 70
     1
102
RTVSPropertyOp39
 70
     1
102
RTVSPropertyOp40
 70
     1
102
RTVSPropertyOp41
 70
     1
102
RTVSPropertyOp42
 70
     1
102
RTVSPropertyOp43
 70
     1
102
RTVSPropertyOp44
 70
     1
102
RTVSPropertyOp45
 70
     1
102
RTVSPropertyOp46
 70
     1
102
RTVSPropertyOp47
 70
     1
102
RTVSPropertyOp48
 70
     1
102
RTVSPropertyOp49
 70
     1
102
RTVSPropertyOp50
 70
     1
102
RTVSPropertyOp51
 70
     0
102
RTVSPropertyOp52
 70
     0
102
RTVSPropertyOp53
 70
     1
102
RTVSPropertyOp54
 70
     1
102
RTVSPropertyOp55
 70
     1
102
RTVSPropertyOp56
 70
     1
102
RTVSPropertyOp57
 70
     1
102
RTVSPost2010Prop28
280
     0
102
RTVSPost2010PropOp28
 70
     1
102
RTVSPost2010Prop29
280
     1
102
RTVSPost2010PropOp29
 70
     1
102
RTVSPost2010Prop30
280
     1
102
RTVSPost2010PropOp30
 70
     1
102
RTVSPost2010Prop31
280
     0
102
RTVSPost2010PropOp31
 70
     1
102
RTVSPost2010Prop32
280
     0
102
RTVSPost2010PropOp32
 70
     1
102
RTVSPost2010Prop33
280
     0
102
RTVSPost2010PropOp33
 70
     1
102
RTVSPost2010Prop34
280
     0
102
RTVSPost2010PropOp34
 70
     1
102
RTVSPost2010Prop35
280
     0
102
RTVSPost2010PropOp35
 70
     1
102
RTVSPost2010Prop36
280
     0
102
RTVSPost2010PropOp36
 70
     1
102
RTVSPost2010Prop37
 90
       50
102
RTVSPost2010PropOp37
 70
     1
102
RTVSPost2010Prop38
140
0.0
102
RTVSPost2010PropOp38
 70
     1
102
RTVSPost2010Prop39
140
1.0
102
RTVSPost2010PropOp39
 70
     1
102
RTVSPost2010Prop40
 90
        0
102
RTVSPost2010PropOp40
 70
     1
102
RTVSPost2010Prop41ColorIndex
 90
       18
102
RTVSPost2010Prop41ColorRGB
 90
        0
102
RTVSPost2010PropOp41
 70
     1
102
RTVSPost2010Prop42
 90
       50
102
RTVSPost2010PropOp42
 70
     1
102
RTVSPost2010Prop43
 90
        3
102
RTVSPost2010PropOp43
 70
     1
102
RTVSPost2010Prop44ColorIndex
 90
        5
102
RTVSPost2010Prop44ColorRGB
 90
      255
102
RTVSPost2010PropOp44
 70
     1
102
RTVSPost2010Prop45
280
     0
102
RTVSPost2010PropOp45
 70
     1
102
RTVSPost2010Prop46
 90
       50
102
RTVSPost2010PropOp46
 70
     1
102
RTVSPost2010Prop47
 90
       50
102
RTVSPost2010PropOp47
 70
     1
102
RTVSPost2010Prop48
 90
       50
102
RTVSPost2010PropOp48
 70
     1
102
RTVSPost2010Prop49
280
     0
102
RTVSPost2010PropOp49
 70
     1
102
RTVSPost2010Prop50
 90
       50
102
RTVSPost2010PropOp50
 70
     1
102
RTVSPost2010Prop51ColorIndex
 90
      256
102
RTVSPost2010Prop51ColorRGB
 90
-16777216
102
RTVSPost2010PropOp51
 70
     0
102
RTVSPost2010Prop52
140
1.0
102
RTVSPost2010PropOp52
 70
     0
102
RTVSPost2010Prop53
 90
        2
102
RTVSPost2010PropOp53
 70
     1
102
RTVSPost2010Prop54
  1
strokes_ogs.tif
102
RTVSPost2010PropOp54
 70
     1
102
RTVSPost2010Prop55
280
     0
102
RTVSPost2010PropOp55
 70
     1
102
RTVSPost2010Prop56
140
1.0
102
RTVSPost2010PropOp56
 70
     1
102
RTVSPost2010Prop57
140
1.0
102
RTVSPost2010PropOp57
 70
     1
  0
XRECORD
  5
32B
102
{ACAD_REACTORS
330
32A
102
}
330
32A
100
AcDbXrecord
280
     1
102
RTVSPropertyOp0
 70
     1
102
RTVSPropertyOp1
 70
     1
102
RTVSPropertyOp2
 70
     1
102
RTVSPropertyOp3
 70
     1
102
RTVSPropertyOp4
 70
     1
102
RTVSPropertyOp5
 70
     1
102
RTVSPropertyOp6
 70
     1
102
RTVSPropertyOp7
 70
     1
102
RTVSPropertyOp8
 70
     1
102
RTVSPropertyOp9
 70
     1
102
RTVSPropertyOp10
 70
     1
102
RTVSPropertyOp11
 70
     1
102
RTVSPropertyOp12
 70
     1
102
RTVSPropertyOp13
 70
     1
102
RTVSPropertyOp14
 70
     1
102
RTVSPropertyOp15
 70
     1
102
RTVSPropertyOp16
 70
     1
102
RTVSPropertyOp17
 70
     1
102
RTVSPropertyOp18
 70
     1
102
RTVSPropertyOp19
 70
     1
102
RTVSPropertyOp20
 70
     1
102
RTVSPropertyOp21
 70
     1
102
RTVSPropertyOp22
 70
     1
102
RTVSPropertyOp23
 70
     1
102
RTVSPropertyOp24
 70
     1
102
RTVSPropertyOp25
 70
     1
102
RTVSPropertyOp26
 70
     1
102
RTVSPropertyOp27
 70
     1
102
RTVSPropertyOp28
 70
     1
102
RTVSPropertyOp29
 70
     1
102
RTVSPropertyOp30
 70
     1
102
RTVSPropertyOp31
 70
     1
102
RTVSPropertyOp32
 70
     1
102
RTVSPropertyOp33
 70
     1
102
RTVSPropertyOp34
 70
     1
102
RTVSPropertyOp35
 70
     1
102
RTVSPropertyOp36
 70
     1
102
RTVSPropertyOp37
 70
     1
102
RTVSPropertyOp38
 70
     1
102
RTVSPropertyOp39
 70
     1
102
RTVSPropertyOp40
 70
     1
102
RTVSPropertyOp41
 70
     1
102
RTVSPropertyOp42
 70
     1
102
RTVSPropertyOp43
 70
     1
102
RTVSPropertyOp44
 70
     1
102
RTVSPropertyOp45
 70
     1
102
RTVSPropertyOp46
 70
     1
102
RTVSPropertyOp47
 70
     1
102
RTVSPropertyOp48
 70
     1
102
RTVSPropertyOp49
 70
     1
102
RTVSPropertyOp50
 70
     1
102
RTVSPropertyOp51
 70
     0
102
RTVSPropertyOp52
 70
     0
102
RTVSPropertyOp53
 70
     1
102
RTVSPropertyOp54
 70
     1
102
RTVSPropertyOp55
 70
     1
102
RTVSPropertyOp56
 70
     1
102
RTVSPropertyOp57
 70
     1
102
RTVSPost2010Prop28
280
     0
102
RTVSPost2010PropOp28
 70
     1
102
RTVSPost2010Prop29
280
     1
102
RTVSPost2010PropOp29
 70
     1
102
RTVSPost2010Prop30
280
     1
102
RTVSPost2010PropOp30
 70
     1
102
RTVSPost2010Prop31
280
     0
102
RTVSPost2010PropOp31
 70
     1
102
RTVSPost2010Prop32
280
     0
102
RTVSPost2010PropOp32
 70
     1
102
RTVSPost2010Prop33
280
     0
102
RTVSPost2010PropOp33
 70
     1
102
RTVSPost2010Prop34
280
     0
102
RTVSPost2010PropOp34
 70
     1
102
RTVSPost2010Prop35
280
     0
102
RTVSPost2010PropOp35
 70
     1
102
RTVSPost2010Prop36
280
     0
102
RTVSPost2010PropOp36
 70
     1
102
RTVSPost2010Prop37
 90
       50
102
RTVSPost2010PropOp37
 70
     1
102
RTVSPost2010Prop38
140
0.0
102
RTVSPost2010PropOp38
 70
     1
102
RTVSPost2010Prop39
140
1.0
102
RTVSPost2010PropOp39
 70
     1
102
RTVSPost2010Prop40
 90
        0
102
RTVSPost2010PropOp40
 70
     1
102
RTVSPost2010Prop41ColorIndex
 90
       18
102
RTVSPost2010Prop41ColorRGB
 90
        0
102
RTVSPost2010PropOp41
 70
     1
102
RTVSPost2010Prop42
 90
       50
102
RTVSPost2010PropOp42
 70
     1
102
RTVSPost2010Prop43
 90
        3
102
RTVSPost2010PropOp43
 70
     1
102
RTVSPost2010Prop44ColorIndex
 90
        5
102
RTVSPost2010Prop44ColorRGB
 90
      255
102
RTVSPost2010PropOp44
 70
     1
102
RTVSPost2010Prop45
280
     0
102
RTVSPost2010PropOp45
 70
     1
102
RTVSPost2010Prop46
 90
       50
102
RTVSPost2010PropOp46
 70
     1
102
RTVSPost2010Prop47
 90
       50
102
RTVSPost2010PropOp47
 70
     1
102
RTVSPost2010Prop48
 90
       50
102
RTVSPost2010PropOp48
 70
     1
102
RTVSPost2010Prop49
280
     0
102
RTVSPost2010PropOp49
 70
     1
102
RTVSPost2010Prop50
 90
       50
102
RTVSPost2010PropOp50
 70
     1
102
RTVSPost2010Prop51ColorIndex
 90
      256
102
RTVSPost2010Prop51ColorRGB
 90
-16777216
102
RTVSPost2010PropOp51
 70
     0
102
RTVSPost2010Prop52
140
1.0
102
RTVSPost2010PropOp52
 70
     0
102
RTVSPost2010Prop53
 90
        2
102
RTVSPost2010PropOp53
 70
     1
102
RTVSPost2010Prop54
  1
strokes_ogs.tif
102
RTVSPost2010PropOp54
 70
     1
102
RTVSPost2010Prop55
280
     0
102
RTVSPost2010PropOp55
 70
     1
102
RTVSPost2010Prop56
140
1.0
102
RTVSPost2010PropOp56
 70
     1
102
RTVSPost2010Prop57
140
1.0
102
RTVSPost2010PropOp57
 70
     1
  0
XRECORD
  5
31B
102
{ACAD_REACTORS
330
31A
102
}
330
31A
100
AcDbXrecord
280
     1
102
RTVSPropertyOp0
 70
     1
102
RTVSPropertyOp1
 70
     1
102
RTVSPropertyOp2
 70
     1
102
RTVSPropertyOp3
 70
     1
102
RTVSPropertyOp4
 70
     1
102
RTVSPropertyOp5
 70
     1
102
RTVSPropertyOp6
 70
     1
102
RTVSPropertyOp7
 70
     1
102
RTVSPropertyOp8
 70
     1
102
RTVSPropertyOp9
 70
     1
102
RTVSPropertyOp10
 70
     1
102
RTVSPropertyOp11
 70
     1
102
RTVSPropertyOp12
 70
     1
102
RTVSPropertyOp13
 70
     1
102
RTVSPropertyOp14
 70
     1
102
RTVSPropertyOp15
 70
     1
102
RTVSPropertyOp16
 70
     1
102
RTVSPropertyOp17
 70
     1
102
RTVSPropertyOp18
 70
     1
102
RTVSPropertyOp19
 70
     1
102
RTVSPropertyOp20
 70
     1
102
RTVSPropertyOp21
 70
     1
102
RTVSPropertyOp22
 70
     1
102
RTVSPropertyOp23
 70
     1
102
RTVSPropertyOp24
 70
     1
102
RTVSPropertyOp25
 70
     1
102
RTVSPropertyOp26
 70
     1
102
RTVSPropertyOp27
 70
     1
102
RTVSPropertyOp28
 70
     1
102
RTVSPropertyOp29
 70
     1
102
RTVSPropertyOp30
 70
     1
102
RTVSPropertyOp31
 70
     1
102
RTVSPropertyOp32
 70
     1
102
RTVSPropertyOp33
 70
     1
102
RTVSPropertyOp34
 70
     1
102
RTVSPropertyOp35
 70
     1
102
RTVSPropertyOp36
 70
     1
102
RTVSPropertyOp37
 70
     1
102
RTVSPropertyOp38
 70
     1
102
RTVSPropertyOp39
 70
     1
102
RTVSPropertyOp40
 70
     1
102
RTVSPropertyOp41
 70
     1
102
RTVSPropertyOp42
 70
     1
102
RTVSPropertyOp43
 70
     1
102
RTVSPropertyOp44
 70
     1
102
RTVSPropertyOp45
 70
     1
102
RTVSPropertyOp46
 70
     1
102
RTVSPropertyOp47
 70
     1
102
RTVSPropertyOp48
 70
     1
102
RTVSPropertyOp49
 70
     1
102
RTVSPropertyOp50
 70
     1
102
RTVSPropertyOp51
 70
     0
102
RTVSPropertyOp52
 70
     0
102
RTVSPropertyOp53
 70
     1
102
RTVSPropertyOp54
 70
     1
102
RTVSPropertyOp55
 70
     1
102
RTVSPropertyOp56
 70
     1
102
RTVSPropertyOp57
 70
     1
102
RTVSPost2010Prop28
280
     0
102
RTVSPost2010PropOp28
 70
     1
102
RTVSPost2010Prop29
280
     1
102
RTVSPost2010PropOp29
 70
     1
102
RTVSPost2010Prop30
280
     1
102
RTVSPost2010PropOp30
 70
     1
102
RTVSPost2010Prop31
280
     0
102
RTVSPost2010PropOp31
 70
     1
102
RTVSPost2010Prop32
280
     0
102
RTVSPost2010PropOp32
 70
     1
102
RTVSPost2010Prop33
280
     0
102
RTVSPost2010PropOp33
 70
     1
102
RTVSPost2010Prop34
280
     0
102
RTVSPost2010PropOp34
 70
     1
102
RTVSPost2010Prop35
280
     0
102
RTVSPost2010PropOp35
 70
     1
102
RTVSPost2010Prop36
280
     0
102
RTVSPost2010PropOp36
 70
     1
102
RTVSPost2010Prop37
 90
       50
102
RTVSPost2010PropOp37
 70
     1
102
RTVSPost2010Prop38
140
0.0
102
RTVSPost2010PropOp38
 70
     1
102
RTVSPost2010Prop39
140
1.0
102
RTVSPost2010PropOp39
 70
     1
102
RTVSPost2010Prop40
 90
        0
102
RTVSPost2010PropOp40
 70
     1
102
RTVSPost2010Prop41ColorIndex
 90
       18
102
RTVSPost2010Prop41ColorRGB
 90
        0
102
RTVSPost2010PropOp41
 70
     1
102
RTVSPost2010Prop42
 90
       50
102
RTVSPost2010PropOp42
 70
     1
102
RTVSPost2010Prop43
 90
        3
102
RTVSPost2010PropOp43
 70
     1
102
RTVSPost2010Prop44ColorIndex
 90
        5
102
RTVSPost2010Prop44ColorRGB
 90
      255
102
RTVSPost2010PropOp44
 70
     1
102
RTVSPost2010Prop45
280
     0
102
RTVSPost2010PropOp45
 70
     1
102
RTVSPost2010Prop46
 90
       50
102
RTVSPost2010PropOp46
 70
     1
102
RTVSPost2010Prop47
 90
       50
102
RTVSPost2010PropOp47
 70
     1
102
RTVSPost2010Prop48
 90
       50
102
RTVSPost2010PropOp48
 70
     1
102
RTVSPost2010Prop49
280
     0
102
RTVSPost2010PropOp49
 70
     1
102
RTVSPost2010Prop50
 90
       50
102
RTVSPost2010PropOp50
 70
     1
102
RTVSPost2010Prop51ColorIndex
 90
      256
102
RTVSPost2010Prop51ColorRGB
 90
-16777216
102
RTVSPost2010PropOp51
 70
     0
102
RTVSPost2010Prop52
140
1.0
102
RTVSPost2010PropOp52
 70
     0
102
RTVSPost2010Prop53
 90
        2
102
RTVSPost2010PropOp53
 70
     1
102
RTVSPost2010Prop54
  1
strokes_ogs.tif
102
RTVSPost2010PropOp54
 70
     1
102
RTVSPost2010Prop55
280
     0
102
RTVSPost2010PropOp55
 70
     1
102
RTVSPost2010Prop56
140
1.0
102
RTVSPost2010PropOp56
 70
     1
102
RTVSPost2010Prop57
140
1.0
102
RTVSPost2010PropOp57
 70
     1
  0
XRECORD
  5
30D
102
{ACAD_REACTORS
330
30C
102
}
330
30C
100
AcDbXrecord
280
     1
102
RTVSPropertyOp0
 70
     1
102
RTVSPropertyOp1
 70
     1
102
RTVSPropertyOp2
 70
     1
102
RTVSPropertyOp3
 70
     1
102
RTVSPropertyOp4
 70
     1
102
RTVSPropertyOp5
 70
     1
102
RTVSPropertyOp6
 70
     1
102
RTVSPropertyOp7
 70
     1
102
RTVSPropertyOp8
 70
     1
102
RTVSPropertyOp9
 70
     1
102
RTVSPropertyOp10
 70
     1
102
RTVSPropertyOp11
 70
     1
102
RTVSPropertyOp12
 70
     1
102
RTVSPropertyOp13
 70
     1
102
RTVSPropertyOp14
 70
     1
102
RTVSPropertyOp15
 70
     1
102
RTVSPropertyOp16
 70
     1
102
RTVSPropertyOp17
 70
     1
102
RTVSPropertyOp18
 70
     1
102
RTVSPropertyOp19
 70
     1
102
RTVSPropertyOp20
 70
     1
102
RTVSPropertyOp21
 70
     1
102
RTVSPropertyOp22
 70
     1
102
RTVSPropertyOp23
 70
     1
102
RTVSPropertyOp24
 70
     1
102
RTVSPropertyOp25
 70
     1
102
RTVSPropertyOp26
 70
     1
102
RTVSPropertyOp27
 70
     1
102
RTVSPropertyOp28
 70
     1
102
RTVSPropertyOp29
 70
     1
102
RTVSPropertyOp30
 70
     1
102
RTVSPropertyOp31
 70
     1
102
RTVSPropertyOp32
 70
     1
102
RTVSPropertyOp33
 70
     1
102
RTVSPropertyOp34
 70
     1
102
RTVSPropertyOp35
 70
     1
102
RTVSPropertyOp36
 70
     1
102
RTVSPropertyOp37
 70
     1
102
RTVSPropertyOp38
 70
     1
102
RTVSPropertyOp39
 70
     1
102
RTVSPropertyOp40
 70
     1
102
RTVSPropertyOp41
 70
     1
102
RTVSPropertyOp42
 70
     1
102
RTVSPropertyOp43
 70
     1
102
RTVSPropertyOp44
 70
     1
102
RTVSPropertyOp45
 70
     1
102
RTVSPropertyOp46
 70
     1
102
RTVSPropertyOp47
 70
     1
102
RTVSPropertyOp48
 70
     1
102
RTVSPropertyOp49
 70
     1
102
RTVSPropertyOp50
 70
     1
102
RTVSPropertyOp51
 70
     0
102
RTVSPropertyOp52
 70
     0
102
RTVSPropertyOp53
 70
     1
102
RTVSPropertyOp54
 70
     1
102
RTVSPropertyOp55
 70
     1
102
RTVSPropertyOp56
 70
     1
102
RTVSPropertyOp57
 70
     1
102
RTVSPost2010Prop28
280
     0
102
RTVSPost2010PropOp28
 70
     1
102
RTVSPost2010Prop29
280
     1
102
RTVSPost2010PropOp29
 70
     1
102
RTVSPost2010Prop30
280
     1
102
RTVSPost2010PropOp30
 70
     1
102
RTVSPost2010Prop31
280
     0
102
RTVSPost2010PropOp31
 70
     1
102
RTVSPost2010Prop32
280
     0
102
RTVSPost2010PropOp32
 70
     1
102
RTVSPost2010Prop33
280
     0
102
RTVSPost2010PropOp33
 70
     1
102
RTVSPost2010Prop34
280
     0
102
RTVSPost2010PropOp34
 70
     1
102
RTVSPost2010Prop35
280
     0
102
RTVSPost2010PropOp35
 70
     1
102
RTVSPost2010Prop36
280
     0
102
RTVSPost2010PropOp36
 70
     1
102
RTVSPost2010Prop37
 90
       50
102
RTVSPost2010PropOp37
 70
     1
102
RTVSPost2010Prop38
140
0.0
102
RTVSPost2010PropOp38
 70
     1
102
RTVSPost2010Prop39
140
1.0
102
RTVSPost2010PropOp39
 70
     1
102
RTVSPost2010Prop40
 90
        0
102
RTVSPost2010PropOp40
 70
     1
102
RTVSPost2010Prop41ColorIndex
 90
       18
102
RTVSPost2010Prop41ColorRGB
 90
        0
102
RTVSPost2010PropOp41
 70
     1
102
RTVSPost2010Prop42
 90
       50
102
RTVSPost2010PropOp42
 70
     1
102
RTVSPost2010Prop43
 90
        3
102
RTVSPost2010PropOp43
 70
     1
102
RTVSPost2010Prop44ColorIndex
 90
        5
102
RTVSPost2010Prop44ColorRGB
 90
      255
102
RTVSPost2010PropOp44
 70
     1
102
RTVSPost2010Prop45
280
     0
102
RTVSPost2010PropOp45
 70
     1
102
RTVSPost2010Prop46
 90
       50
102
RTVSPost2010PropOp46
 70
     1
102
RTVSPost2010Prop47
 90
       50
102
RTVSPost2010PropOp47
 70
     1
102
RTVSPost2010Prop48
 90
       50
102
RTVSPost2010PropOp48
 70
     1
102
RTVSPost2010Prop49
280
     0
102
RTVSPost2010PropOp49
 70
     1
102
RTVSPost2010Prop50
 90
       50
102
RTVSPost2010PropOp50
 70
     1
102
RTVSPost2010Prop51ColorIndex
 90
      256
102
RTVSPost2010Prop51ColorRGB
 90
-16777216
102
RTVSPost2010PropOp51
 70
     0
102
RTVSPost2010Prop52
140
1.0
102
RTVSPost2010PropOp52
 70
     0
102
RTVSPost2010Prop53
 90
        2
102
RTVSPost2010PropOp53
 70
     1
102
RTVSPost2010Prop54
  1
strokes_ogs.tif
102
RTVSPost2010PropOp54
 70
     1
102
RTVSPost2010Prop55
280
     0
102
RTVSPost2010PropOp55
 70
     1
102
RTVSPost2010Prop56
140
1.0
102
RTVSPost2010PropOp56
 70
     1
102
RTVSPost2010Prop57
140
1.0
102
RTVSPost2010PropOp57
 70
     1
  0
XRECORD
  5
32D
102
{ACAD_REACTORS
330
32C
102
}
330
32C
100
AcDbXrecord
280
     1
102
RTVSPropertyOp0
 70
     1
102
RTVSPropertyOp1
 70
     1
102
RTVSPropertyOp2
 70
     1
102
RTVSPropertyOp3
 70
     1
102
RTVSPropertyOp4
 70
     1
102
RTVSPropertyOp5
 70
     1
102
RTVSPropertyOp6
 70
     1
102
RTVSPropertyOp7
 70
     1
102
RTVSPropertyOp8
 70
     1
102
RTVSPropertyOp9
 70
     1
102
RTVSPropertyOp10
 70
     1
102
RTVSPropertyOp11
 70
     1
102
RTVSPropertyOp12
 70
     1
102
RTVSPropertyOp13
 70
     1
102
RTVSPropertyOp14
 70
     1
102
RTVSPropertyOp15
 70
     1
102
RTVSPropertyOp16
 70
     1
102
RTVSPropertyOp17
 70
     1
102
RTVSPropertyOp18
 70
     1
102
RTVSPropertyOp19
 70
     1
102
RTVSPropertyOp20
 70
     1
102
RTVSPropertyOp21
 70
     1
102
RTVSPropertyOp22
 70
     1
102
RTVSPropertyOp23
 70
     1
102
RTVSPropertyOp24
 70
     1
102
RTVSPropertyOp25
 70
     1
102
RTVSPropertyOp26
 70
     1
102
RTVSPropertyOp27
 70
     1
102
RTVSPropertyOp28
 70
     1
102
RTVSPropertyOp29
 70
     1
102
RTVSPropertyOp30
 70
     1
102
RTVSPropertyOp31
 70
     1
102
RTVSPropertyOp32
 70
     1
102
RTVSPropertyOp33
 70
     1
102
RTVSPropertyOp34
 70
     1
102
RTVSPropertyOp35
 70
     1
102
RTVSPropertyOp36
 70
     1
102
RTVSPropertyOp37
 70
     1
102
RTVSPropertyOp38
 70
     1
102
RTVSPropertyOp39
 70
     1
102
RTVSPropertyOp40
 70
     1
102
RTVSPropertyOp41
 70
     1
102
RTVSPropertyOp42
 70
     1
102
RTVSPropertyOp43
 70
     1
102
RTVSPropertyOp44
 70
     1
102
RTVSPropertyOp45
 70
     1
102
RTVSPropertyOp46
 70
     1
102
RTVSPropertyOp47
 70
     1
102
RTVSPropertyOp48
 70
     1
102
RTVSPropertyOp49
 70
     1
102
RTVSPropertyOp50
 70
     1
102
RTVSPropertyOp51
 70
     0
102
RTVSPropertyOp52
 70
     0
102
RTVSPropertyOp53
 70
     1
102
RTVSPropertyOp54
 70
     1
102
RTVSPropertyOp55
 70
     1
102
RTVSPropertyOp56
 70
     1
102
RTVSPropertyOp57
 70
     1
102
RTVSPost2010Prop28
280
     0
102
RTVSPost2010PropOp28
 70
     1
102
RTVSPost2010Prop29
280
     1
102
RTVSPost2010PropOp29
 70
     1
102
RTVSPost2010Prop30
280
     1
102
RTVSPost2010PropOp30
 70
     1
102
RTVSPost2010Prop31
280
     0
102
RTVSPost2010PropOp31
 70
     1
102
RTVSPost2010Prop32
280
     0
102
RTVSPost2010PropOp32
 70
     1
102
RTVSPost2010Prop33
280
     0
102
RTVSPost2010PropOp33
 70
     1
102
RTVSPost2010Prop34
280
     0
102
RTVSPost2010PropOp34
 70
     1
102
RTVSPost2010Prop35
280
     0
102
RTVSPost2010PropOp35
 70
     1
102
RTVSPost2010Prop36
280
     0
102
RTVSPost2010PropOp36
 70
     1
102
RTVSPost2010Prop37
 90
       50
102
RTVSPost2010PropOp37
 70
     1
102
RTVSPost2010Prop38
140
0.0
102
RTVSPost2010PropOp38
 70
     1
102
RTVSPost2010Prop39
140
1.0
102
RTVSPost2010PropOp39
 70
     1
102
RTVSPost2010Prop40
 90
        0
102
RTVSPost2010PropOp40
 70
     1
102
RTVSPost2010Prop41ColorIndex
 90
       18
102
RTVSPost2010Prop41ColorRGB
 90
        0
102
RTVSPost2010PropOp41
 70
     1
102
RTVSPost2010Prop42
 90
       50
102
RTVSPost2010PropOp42
 70
     1
102
RTVSPost2010Prop43
 90
        3
102
RTVSPost2010PropOp43
 70
     1
102
RTVSPost2010Prop44ColorIndex
 90
        5
102
RTVSPost2010Prop44ColorRGB
 90
      255
102
RTVSPost2010PropOp44
 70
     1
102
RTVSPost2010Prop45
280
     0
102
RTVSPost2010PropOp45
 70
     1
102
RTVSPost2010Prop46
 90
       50
102
RTVSPost2010PropOp46
 70
     1
102
RTVSPost2010Prop47
 90
       50
102
RTVSPost2010PropOp47
 70
     1
102
RTVSPost2010Prop48
 90
       50
102
RTVSPost2010PropOp48
 70
     1
102
RTVSPost2010Prop49
280
     0
102
RTVSPost2010PropOp49
 70
     1
102
RTVSPost2010Prop50
 90
       50
102
RTVSPost2010PropOp50
 70
     1
102
RTVSPost2010Prop51ColorIndex
 90
      256
102
RTVSPost2010Prop51ColorRGB
 90
-16777216
102
RTVSPost2010PropOp51
 70
     0
102
RTVSPost2010Prop52
140
1.0
102
RTVSPost2010PropOp52
 70
     0
102
RTVSPost2010Prop53
 90
        2
102
RTVSPost2010PropOp53
 70
     1
102
RTVSPost2010Prop54
  1
strokes_ogs.tif
102
RTVSPost2010PropOp54
 70
     1
102
RTVSPost2010Prop55
280
     0
102
RTVSPost2010PropOp55
 70
     1
102
RTVSPost2010Prop56
140
1.0
102
RTVSPost2010PropOp56
 70
     1
102
RTVSPost2010Prop57
140
1.0
102
RTVSPost2010PropOp57
 70
     1
  0
ENDSEC
  0
EOF
