  0
SECTION
  2
HEADER
  9
$ACADVER
  1
AC1018
  9
$ACADMAINTVER
 70
     0
  9
$DWGCODEPAGE
  3
ANSI_1252
  9
$INSBASE
 10
0.0
 20
0.0
 30
0.0
  9
$EXTMIN
 10
1.000000000000000E+20
 20
1.000000000000000E+20
 30
1.000000000000000E+20
  9
$EXTMAX
 10
-1.000000000000000E+20
 20
-1.000000000000000E+20
 30
-1.000000000000000E+20
  9
$LIMMIN
 10
0.0
 20
0.0
  9
$LIMMAX
 10
12.0
 20
9.0
  9
$ORTHOMODE
 70
     0
  9
$REGENMODE
 70
     1
  9
$FILLMODE
 70
     1
  9
$QTEXTMODE
 70
     0
  9
$MIRRTEXT
 70
     1
  9
$LTSCALE
 40
1.0
  9
$ATTMODE
 70
     1
  9
$TEXTSIZE
 40
0.2
  9
$TRACEWID
 40
0.05
  9
$TEXTSTYLE
  7
Standard
  9
$CLAYER
  8
0
  9
$CELTYPE
  6
ByLayer
  9
$CECOLOR
 62
   256
  9
$CELTSCALE
 40
1.0
  9
$DISPSILH
 70
     0
  9
$DIMSCALE
 40
1.0
  9
$DIMASZ
 40
0.18
  9
$DIMEXO
 40
0.0625
  9
$DIMDLI
 40
0.38
  9
$DIMRND
 40
0.0
  9
$DIMDLE
 40
0.0
  9
$DIMEXE
 40
0.18
  9
$DIMTP
 40
0.0
  9
$DIMTM
 40
0.0
  9
$DIMTXT
 40
0.18
  9
$DIMCEN
 40
0.09
  9
$DIMTSZ
 40
0.0
  9
$DIMTOL
 70
     0
  9
$DIMLIM
 70
     0
  9
$DIMTIH
 70
     1
  9
$DIMTOH
 70
     1
  9
$DIMSE1
 70
     0
  9
$DIMSE2
 70
     0
  9
$DIMTAD
 70
     0
  9
$DIMZIN
 70
     0
  9
$DIMBLK
  1

  9
$DIMASO
 70
     1
  9
$DIMSHO
 70
     1
  9
$DIMPOST
  1

  9
$DIMAPOST
  1

  9
$DIMALT
 70
     0
  9
$DIMALTD
 70
     2
  9
$DIMALTF
 40
25.4
  9
$DIMLFAC
 40
1.0
  9
$DIMTOFL
 70
     0
  9
$DIMTVP
 40
0.0
  9
$DIMTIX
 70
     0
  9
$DIMSOXD
 70
     0
  9
$DIMSAH
 70
     0
  9
$DIMBLK1
  1

  9
$DIMBLK2
  1

  9
$DIMSTYLE
  2
Standard
  9
$DIMCLRD
 70
     0
  9
$DIMCLRE
 70
     0
  9
$DIMCLRT
 70
     0
  9
$DIMTFAC
 40
1.0
  9
$DIMGAP
 40
0.09
  9
$DIMJUST
 70
     0
  9
$DIMSD1
 70
     0
  9
$DIMSD2
 70
     0
  9
$DIMTOLJ
 70
     1
  9
$DIMTZIN
 70
     0
  9
$DIMALTZ
 70
     0
  9
$DIMALTTZ
 70
     0
  9
$DIMUPT
 70
     0
  9
$DIMDEC
 70
     4
  9
$DIMTDEC
 70
     4
  9
$DIMALTU
 70
     2
  9
$DIMALTTD
 70
     2
  9
$DIMTXSTY
  7
Standard
  9
$DIMAUNIT
 70
     0
  9
$DIMADEC
 70
     0
  9
$DIMALTRND
 40
0.0
  9
$DIMAZIN
 70
     0
  9
$DIMDSEP
 70
    46
  9
$DIMATFIT
 70
     3
  9
$DIMFRAC
 70
     0
  9
$DIMLDRBLK
  1

  9
$DIMLUNIT
 70
     2
  9
$DIMLWD
 70
    -2
  9
$DIMLWE
 70
    -2
  9
$DIMTMOVE
 70
     0
  9
$LUNITS
 70
     2
  9
$LUPREC
 70
     4
  9
$SKETCHINC
 40
0.1
  9
$FILLETRAD
 40
0.5
  9
$AUNITS
 70
     0
  9
$AUPREC
 70
     0
  9
$MENU
  1
.
  9
$ELEVATION
 40
0.0
  9
$PELEVATION
 40
0.0
  9
$THICKNESS
 40
0.0
  9
$LIMCHECK
 70
     0
  9
$CHAMFERA
 40
0.0
  9
$CHAMFERB
 40
0.0
  9
$CHAMFERC
 40
0.0
  9
$CHAMFERD
 40
0.0
  9
$SKPOLY
 70
     0
  9
$TDCREATE
 40
2458396.704673657
  9
$TDUCREATE
 40
2458396.621340324
  9
$TDUPDATE
 40
2458396.704675116
  9
$TDUUPDATE
 40
2458396.621341783
  9
$TDINDWG
 40
0.0000000116
  9
$TDUSRTIMER
 40
0.0000000116
  9
$USRTIMER
 70
     1
  9
$ANGBASE
 50
0.0
  9
$ANGDIR
 70
     0
  9
$PDMODE
 70
    65
  9
$PDSIZE
 40
0.0
  9
$PLINEWID
 40
0.0
  9
$SPLFRAME
 70
     0
  9
$SPLINETYPE
 70
     6
  9
$SPLINESEGS
 70
     8
  9
$HANDSEED
  5
377
  9
$SURFTAB1
 70
     6
  9
$SURFTAB2
 70
     6
  9
$SURFTYPE
 70
     6
  9
$SURFU
 70
     6
  9
$SURFV
 70
     6
  9
$UCSBASE
  2

  9
$UCSNAME
  2

  9
$UCSORG
 10
0.0
 20
0.0
 30
0.0
  9
$UCSXDIR
 10
1.0
 20
0.0
 30
0.0
  9
$UCSYDIR
 10
0.0
 20
1.0
 30
0.0
  9
$UCSORTHOREF
  2

  9
$UCSORTHOVIEW
 70
     0
  9
$UCSORGTOP
 10
0.0
 20
0.0
 30
0.0
  9
$UCSORGBOTTOM
 10
0.0
 20
0.0
 30
0.0
  9
$UCSORGLEFT
 10
0.0
 20
0.0
 30
0.0
  9
$UCSORGRIGHT
 10
0.0
 20
0.0
 30
0.0
  9
$UCSORGFRONT
 10
0.0
 20
0.0
 30
0.0
  9
$UCSORGBACK
 10
0.0
 20
0.0
 30
0.0
  9
$PUCSBASE
  2

  9
$PUCSNAME
  2

  9
$PUCSORG
 10
0.0
 20
0.0
 30
0.0
  9
$PUCSXDIR
 10
1.0
 20
0.0
 30
0.0
  9
$PUCSYDIR
 10
0.0
 20
1.0
 30
0.0
  9
$PUCSORTHOREF
  2

  9
$PUCSORTHOVIEW
 70
     0
  9
$PUCSORGTOP
 10
0.0
 20
0.0
 30
0.0
  9
$PUCSORGBOTTOM
 10
0.0
 20
0.0
 30
0.0
  9
$PUCSORGLEFT
 10
0.0
 20
0.0
 30
0.0
  9
$PUCSORGRIGHT
 10
0.0
 20
0.0
 30
0.0
  9
$PUCSORGFRONT
 10
0.0
 20
0.0
 30
0.0
  9
$PUCSORGBACK
 10
0.0
 20
0.0
 30
0.0
  9
$USERI1
 70
     0
  9
$USERI2
 70
     0
  9
$USERI3
 70
     0
  9
$USERI4
 70
     0
  9
$USERI5
 70
     0
  9
$USERR1
 40
0.0
  9
$USERR2
 40
0.0
  9
$USERR3
 40
0.0
  9
$USERR4
 40
0.0
  9
$USERR5
 40
0.0
  9
$WORLDVIEW
 70
     1
  9
$SHADEDGE
 70
     3
  9
$SHADEDIF
 70
    70
  9
$TILEMODE
 70
     1
  9
$MAXACTVP
 70
    64
  9
$PINSBASE
 10
0.0
 20
0.0
 30
0.0
  9
$PLIMCHECK
 70
     0
  9
$PEXTMIN
 10
1.000000000000000E+20
 20
1.000000000000000E+20
 30
1.000000000000000E+20
  9
$PEXTMAX
 10
-1.000000000000000E+20
 20
-1.000000000000000E+20
 30
-1.000000000000000E+20
  9
$PLIMMIN
 10
0.0
 20
0.0
  9
$PLIMMAX
 10
12.0
 20
9.0
  9
$UNITMODE
 70
     0
  9
$VISRETAIN
 70
     1
  9
$PLINEGEN
 70
     0
  9
$PSLTSCALE
 70
     1
  9
$TREEDEPTH
 70
  3020
  9
$CMLSTYLE
  2
Standard
  9
$CMLJUST
 70
     0
  9
$CMLSCALE
 40
1.0
  9
$PROXYGRAPHICS
 70
     1
  9
$MEASUREMENT
 70
     1
  9
$CELWEIGHT
370
    -1
  9
$ENDCAPS
280
     0
  9
$JOINSTYLE
280
     0
  9
$LWDISPLAY
290
     0
  9
$INSUNITS
 70
     6
  9
$HYPERLINKBASE
  1

  9
$STYLESHEET
  1

  9
$XEDIT
290
     1
  9
$CEPSNTYPE
380
     0
  9
$PSTYLEMODE
290
     1
  9
$FINGERPRINTGUID
  2
{28FCE128-E91D-469A-85D6-B3BBE46B58D7}
  9
$VERSIONGUID
  2
{FAEB1C32-E019-11D5-929B-00C0DF256EC4}
  9
$EXTNAMES
290
     1
  9
$PSVPSCALE
 40
0.0
  9
$OLESTARTUP
290
     0
  9
$SORTENTS
280
   127
  9
$INDEXCTL
280
     0
  9
$HIDETEXT
280
     1
  9
$XCLIPFRAME
290
     0
  9
$HALOGAP
280
     0
  9
$OBSCOLOR
 70
   257
  9
$OBSLTYPE
280
     0
  9
$INTERSECTIONDISPLAY
280
     0
  9
$INTERSECTIONCOLOR
 70
   257
  9
$DIMASSOC
280
     2
  9
$PROJECTNAME
  1

  0
ENDSEC
  0
SECTION
  2
CLASSES
  0
CLASS
  1
ACDBDICTIONARYWDFLT
  2
AcDbDictionaryWithDefault
  3
ObjectDBX Classes
 90
        0
 91
       21
280
     0
281
     0
  0
CLASS
  1
VISUALSTYLE
  2
AcDbVisualStyle
  3
ObjectDBX Classes
 90
     4095
 91
       21
280
     0
281
     0
  0
CLASS
  1
MATERIAL
  2
AcDbMaterial
  3
ObjectDBX Classes
 90
     1153
 91
       21
280
     0
281
     0
  0
CLASS
  1
SCALE
  2
AcDbScale
  3
ObjectDBX Classes
 90
     1153
 91
       21
280
     0
281
     0
  0
CLASS
  1
TABLESTYLE
  2
AcDbTableStyle
  3
ObjectDBX Classes
 90
     4095
 91
       21
280
     0
281
     0
  0
CLASS
  1
MLEADERSTYLE
  2
AcDbMLeaderStyle
  3
ACDB_MLEADERSTYLE_CLASS
 90
     4095
 91
       21
280
     0
281
     0
  0
CLASS
  1
SUN
  2
AcDbSun
  3
SCENEOE
 90
     1153
 91
       21
280
     0
281
     0
  0
CLASS
  1
DICTIONARYVAR
  2
AcDbDictionaryVar
  3
ObjectDBX Classes
 90
        0
 91
       20
280
     0
281
     0
  0
CLASS
  1
CELLSTYLEMAP
  2
AcDbCellStyleMap
  3
ObjectDBX Classes
 90
     1152
 91
       20
280
     0
281
     0
  0
ENDSEC
  0
SECTION
  2
TABLES
  0
TABLE
  2
VPORT
  5
8
102
{ACAD_XDICTIONARY
360
330
102
}
330
0
100
AcDbSymbolTable
 70
     1
  0
VPORT
  5
29
330
8
100
AcDbSymbolTableRecord
100
AcDbViewportTableRecord
  2
*Active
 70
     0
 10
0.0
 20
0.0
 11
1.0
 21
1.0
 12
10.42990654205607
 22
4.5
 13
0.0
 23
0.0
 14
0.5
 24
0.5
 15
0.5
 25
0.5
 16
0.0
 26
0.0
 36
1.0
 17
0.0
 27
0.0
 37
0.0
 40
9.0
 41
1.972972972850329
 42
50.0
 43
0.0
 44
0.0
 50
0.0
 51
0.0
 71
     0
 72
   100
 73
     1
 74
     3
 75
     0
 76
     0
 77
     0
 78
     0
281
     0
 65
     1
110
0.0
120
0.0
130
0.0
111
1.0
121
0.0
131
0.0
112
0.0
122
1.0
132
0.0
 79
     0
146
0.0
  0
ENDTAB
  0
TABLE
  2
LTYPE
  5
5
330
0
100
AcDbSymbolTable
 70
     2
  0
LTYPE
  5
14
330
5
100
AcDbSymbolTableRecord
100
AcDbLinetypeTableRecord
  2
ByBlock
 70
     0
  3

 72
    65
 73
     0
 40
0.0
  0
LTYPE
  5
15
330
5
100
AcDbSymbolTableRecord
100
AcDbLinetypeTableRecord
  2
ByLayer
 70
     0
  3

 72
    65
 73
     0
 40
0.0
  0
LTYPE
  5
16
330
5
100
AcDbSymbolTableRecord
100
AcDbLinetypeTableRecord
  2
Continuous
 70
     0
  3
Solid line
 72
    65
 73
     0
 40
0.0
  0
LTYPE
  5
6E
330
5
100
AcDbSymbolTableRecord
100
AcDbLinetypeTableRecord
  2
AUSGEZOGEN
 70
     0
  3
durchgezogene Linie
 72
    65
 73
     0
 40
0.0
  0
ENDTAB
  0
TABLE
  2
LAYER
  5
2
330
0
100
AcDbSymbolTable
 70
     3
  0
LAYER
  5
10
330
2
100
AcDbSymbolTableRecord
100
AcDbLayerTableRecord
  2
0
 70
     0
 62
     7
  6
Continuous
370
    -3
390
F
  0
LAYER
  5
71
330
2
100
AcDbSymbolTableRecord
100
AcDbLayerTableRecord
  2
PROJEKT
 70
     0
 62
     7
  6
AUSGEZOGEN
370
    13
390
F
1001
AcCmTransparency
1071
 33554687
1001
AcAecLayerStandard
1000

1000
EXT0005681, an
  0
LAYER
  5
73
330
2
100
AcDbSymbolTableRecord
100
AcDbLayerTableRecord
  2
STANDARD
 70
     0
 62
     7
  6
AUSGEZOGEN
370
    25
390
F
1001
AcCmTransparency
1071
 33554687
1001
AcAecLayerStandard
1000

1000
STANDARD
  0
ENDTAB
  0
TABLE
  2
STYLE
  5
3
330
0
100
AcDbSymbolTable
 70
     2
  0
STYLE
  5
11
330
3
100
AcDbSymbolTableRecord
100
AcDbTextStyleTableRecord
  2
Standard
 70
     0
 40
0.0
 41
1.0
 50
0.0
 71
     0
 42
0.2
  3
txt
  4

  0
STYLE
  5
6F
330
3
100
AcDbSymbolTableRecord
100
AcDbTextStyleTableRecord
  2
ARIAL
 70
     0
 40
0.0
 41
1.0
 50
0.0
 71
     0
 42
0.2
  3
ARIAL.TTF
  4

1001
ACAD
1000
Arial
1071
       34
  0
ENDTAB
  0
TABLE
  2
VIEW
  5
6
330
0
100
AcDbSymbolTable
 70
     0
  0
ENDTAB
  0
TABLE
  2
UCS
  5
7
330
0
100
AcDbSymbolTable
 70
     0
  0
ENDTAB
  0
TABLE
  2
APPID
  5
9
330
0
100
AcDbSymbolTable
 70
     4
  0
APPID
  5
12
330
9
100
AcDbSymbolTableRecord
100
AcDbRegAppTableRecord
  2
ACAD
 70
     0
  0
APPID
  5
70
330
9
100
AcDbSymbolTableRecord
100
AcDbRegAppTableRecord
  2
AcCmTransparency
 70
     0
  0
APPID
  5
72
330
9
100
AcDbSymbolTableRecord
100
AcDbRegAppTableRecord
  2
AcAecLayerStandard
 70
     0
  0
APPID
  5
36F
330
9
100
AcDbSymbolTableRecord
100
AcDbRegAppTableRecord
  2
ACAD_MLEADERVER
 70
     0
  0
ENDTAB
  0
TABLE
  2
DIMSTYLE
  5
A
330
0
100
AcDbSymbolTable
 70
     1
100
AcDbDimStyleTable
  0
DIMSTYLE
105
27
330
A
100
AcDbSymbolTableRecord
100
AcDbDimStyleTableRecord
  2
Standard
 70
     0
178
     0
340
11
  0
ENDTAB
  0
TABLE
  2
BLOCK_RECORD
  5
1
330
0
100
AcDbSymbolTable
 70
     5
  0
BLOCK_RECORD
  5
1F
330
1
100
AcDbSymbolTableRecord
100
AcDbBlockTableRecord
  2
*Model_Space
340
22
  0
BLOCK_RECORD
  5
1B
330
1
100
AcDbSymbolTableRecord
100
AcDbBlockTableRecord
  2
*Paper_Space
340
1E
  0
BLOCK_RECORD
  5
23
330
1
100
AcDbSymbolTableRecord
100
AcDbBlockTableRecord
  2
*Paper_Space0
340
26
  0
BLOCK_RECORD
  5
74
330
1
100
AcDbSymbolTableRecord
100
AcDbBlockTableRecord
  2
TB_2951
340
0
102
{BLKREFS
331
32D
102
}
1001
ACAD
1000
DesignCenter Data
1002
{
1070
     1
1070
     6
1002
}
  0
BLOCK_RECORD
  5
84
330
1
100
AcDbSymbolTableRecord
100
AcDbBlockTableRecord
  2
TB_3015
340
0
102
{BLKREFS
331
32C
102
}
1001
ACAD
1000
DesignCenter Data
1002
{
1070
     1
1070
     6
1002
}
  0
BLOCK_RECORD
  5
92
330
1
100
AcDbSymbolTableRecord
100
AcDbBlockTableRecord
  2
TB_3017
340
0
102
{BLKREFS
331
32E
102
}
1001
ACAD
1000
DesignCenter Data
1002
{
1070
     1
1070
     6
1002
}
  0
BLOCK_RECORD
  5
326
330
1
100
AcDbSymbolTableRecord
100
AcDbBlockTableRecord
  2
TB_7000
340
0
102
{BLKREFS
331
32F
102
}
1001
ACAD
1000
DesignCenter Data
1002
{
1070
     1
1070
     6
1002
}
  0
ENDTAB
  0
ENDSEC
  0
SECTION
  2
BLOCKS
  0
BLOCK
  5
20
330
1F
100
AcDbEntity
  8
0
100
AcDbBlockBegin
  2
*Model_Space
 70
     0
 10
0.0
 20
0.0
 30
0.0
  3
*Model_Space
  1

  0
ENDBLK
  5
21
330
1F
100
AcDbEntity
  8
0
100
AcDbBlockEnd
  0
BLOCK
  5
1C
330
1B
100
AcDbEntity
 67
     1
  8
0
100
AcDbBlockBegin
  2
*Paper_Space
 70
     0
 10
0.0
 20
0.0
 30
0.0
  3
*Paper_Space
  1

  0
ENDBLK
  5
1D
330
1B
100
AcDbEntity
 67
     1
  8
0
100
AcDbBlockEnd
  0
BLOCK
  5
24
330
23
100
AcDbEntity
  8
0
100
AcDbBlockBegin
  2
*Paper_Space0
 70
     0
 10
0.0
 20
0.0
 30
0.0
  3
*Paper_Space0
  1

  0
ENDBLK
  5
25
330
23
100
AcDbEntity
  8
0
100
AcDbBlockEnd
  0
BLOCK
  5
75
330
74
100
AcDbEntity
  8
0
100
AcDbBlockBegin
  2
TB_2951
 70
     0
 10
0.0
 20
0.0
 30
0.0
  3
TB_2951
  1

  0
LINE
  5
77
330
74
100
AcDbEntity
  8
STANDARD
  6
AUSGEZOGEN
 62
     7
440
 33554687
370
    25
100
AcDbLine
 10
-0.0050980224609375
 20
-0.0050580444335937
 30
0.0
 11
-0.0050980224609375
 21
0.2919419555664062
 31
0.0
  0
LINE
  5
78
330
74
100
AcDbEntity
  8
STANDARD
  6
AUSGEZOGEN
 62
     7
440
 33554687
370
    25
100
AcDbLine
 10
0.2049019775390625
 20
-0.0050580444335937
 30
0.0
 11
-0.0050980224609375
 21
-0.0050580444335937
 31
0.0
  0
LINE
  5
79
330
74
100
AcDbEntity
  8
STANDARD
  6
AUSGEZOGEN
 62
     7
440
 33554687
370
    25
100
AcDbLine
 10
-0.0050980224609375
 20
0.2919419555664062
 30
0.0
 11
0.2049019775390625
 21
0.2919419555664062
 31
0.0
  0
LINE
  5
7A
330
74
100
AcDbEntity
  8
STANDARD
  6
AUSGEZOGEN
 62
     7
440
 33554687
370
    25
100
AcDbLine
 10
0.2049019775390625
 20
-0.0050580444335937
 30
0.0
 11
0.2049019775390625
 21
0.2919419555664062
 31
0.0
  0
MTEXT
  5
7B
330
74
100
AcDbEntity
  8
STANDARD
  6
AUSGEZOGEN
 62
     7
440
 33554687
370
    25
100
AcDbMText
 10
0.02013330078125
 20
0.2591166381835938
 30
0.0
 40
0.0025
 41
0.0037839279895732
 71
     7
 72
     5
  1
\W0.99;D
  7
ARIAL
 73
     1
 44
1.0
  0
MTEXT
  5
7C
330
74
100
AcDbEntity
  8
STANDARD
  6
AUSGEZOGEN
 62
     7
440
 33554687
370
    25
100
AcDbMText
 10
0.02013330078125
 20
0.2541166381835938
 30
0.0
 40
0.0025
 41
0.006706237616217
 71
     7
 72
     5
  1
\W1.00;D 9
  7
ARIAL
 73
     1
 44
1.0
  0
MTEXT
  5
7D
330
74
100
AcDbEntity
  8
STANDARD
  6
AUSGEZOGEN
 62
     7
440
 33554687
370
    25
100
AcDbMText
 10
0.0201337890625
 20
0.2822459716796875
 30
0.0
 40
0.0025
 41
0.0254339266549464
 71
     7
 72
     5
  1
\W0.94;Baudepartement
  7
ARIAL
 73
     1
 44
1.0
  0
MTEXT
  5
7E
330
74
100
AcDbEntity
  8
STANDARD
  6
AUSGEZOGEN
 62
     7
440
 33554687
370
    25
100
AcDbMText
 10
0.0201337890625
 20
0.27565380859375
 30
0.0
 40
0.004
 41
0.029482635450324
 71
     7
 72
     5
  1
\W0.98;Tiefbauamt
  7
ARIAL
 73
     1
 44
1.0
  0
MTEXT
  5
7F
330
74
100
AcDbEntity
  8
STANDARD
  6
AUSGEZOGEN
 62
     7
440
 33554687
370
    13
100
AcDbMText
 10
0.0201337890625
 20
0.27044189453125
 30
0.0
 40
0.002
 41
0.0361502979939861
 71
     7
 72
     5
  1
\W0.97;R17.04 Normalien Standards
  7
ARIAL
 73
     1
 44
1.0
  0
MTEXT
  5
80
330
74
100
AcDbEntity
  8
STANDARD
  6
AUSGEZOGEN
 62
     7
440
 33554687
370
    25
100
AcDbMText
 10
0.160474365234375
 20
0.0030323486328125
 30
0.0
 40
0.0025
 41
0.0356942625073671
 71
     7
 72
     5
  1
\W1.01;www.sz.ch/tiefbauamt
  7
ARIAL
 73
     1
 44
1.0
  0
MTEXT
  5
81
330
74
100
AcDbEntity
  8
STANDARD
  6
AUSGEZOGEN
 62
     7
440
 33554687
370
    25
100
AcDbMText
 10
0.0417681274414063
 20
0.2591166381835938
 30
0.0
 40
0.0025
 41
0.0301009053754189
 71
     7
 72
     5
  1
\W1.02;Projektgrundlagen
  7
ARIAL
 73
     1
 44
1.0
  0
MTEXT
  5
82
330
74
100
AcDbEntity
  8
STANDARD
  6
AUSGEZOGEN
 62
     7
440
 33554687
370
    25
100
AcDbMText
 10
0.0417681274414063
 20
0.2541166381835938
 30
0.0
 40
0.0025
 41
0.0275334400990482
 71
     7
 72
     5
  1
\W1.02;Randabschlüsse
  7
ARIAL
 73
     1
 44
1.0
  0
MTEXT
  5
83
330
74
100
AcDbEntity
  8
STANDARD
  6
AUSGEZOGEN
 62
     7
440
 33554687
370
    25
100
AcDbMText
 10
0.0201657104492187
 20
0.0030320434570312
 30
0.0
 40
0.0025
 41
0.0388686283545537
 71
     7
 72
     5
  1
\W0.99;Version 1.0: 01.12.2015
  7
ARIAL
 73
     1
 44
1.0
  0
ENDBLK
  5
76
330
74
100
AcDbEntity
  8
0
100
AcDbBlockEnd
  0
BLOCK
  5
85
330
84
100
AcDbEntity
  8
0
100
AcDbBlockBegin
  2
TB_3015
 70
     0
 10
0.0
 20
0.0
 30
0.0
  3
TB_3015
  1

  0
MTEXT
  5
87
330
84
100
AcDbEntity
  8
STANDARD
  6
AUSGEZOGEN
 62
     7
440
 33554687
370
    25
100
AcDbMText
 10
0.02031494140625
 20
0.2462451782226563
 30
0.0
 40
0.004
 41
0.0185364025522979
 71
     7
 72
     5
  1
\A1;{\fArial|i0|b1;\H0.004000;\W1.000000;\C7;D 9.65}\P
  7
ARIAL
 73
     1
 44
1.0
  0
MTEXT
  5
88
330
84
100
AcDbEntity
  8
STANDARD
  6
AUSGEZOGEN
 62
     7
440
 33554687
370
    25
100
AcDbMText
 10
0.0418980102539062
 20
0.0486585693359375
 30
0.0
 40
0.0025
 41
0.0240890159847485
 71
     7
 72
     5
  1
\A1;{\L\fArial|i0|b0;\H0.002500;\W1.000000;\C7;Bemerkungen:\l}\P
  7
ARIAL
 73
     1
 44
1.0
  0
MTEXT
  5
89
330
84
100
AcDbEntity
  8
STANDARD
  6
AUSGEZOGEN
 62
     7
440
 33554687
370
    25
100
AcDbMText
 10
0.0418980102539062
 20
0.0436585693359375
 30
0.0
 40
0.0025
 41
0.0333783161672909
 71
     7
 72
     5
  1
\W1.00;- Betonbedarf pro m:
  7
ARIAL
 73
     1
 44
1.0
  0
MTEXT
  5
8A
330
84
100
AcDbEntity
  8
STANDARD
  6
AUSGEZOGEN
 62
     7
440
 33554687
370
    25
100
AcDbMText
 10
0.0418980102539062
 20
0.0333252563476562
 30
0.0
 40
0.0025
 41
0.0767566577896139
 71
     7
 72
     5
  1
\W1.01;- Beton reinigen und auftragen eines Haftklebers
  7
ARIAL
 73
     1
 44
1.0
  0
MTEXT
  5
8B
330
84
100
AcDbEntity
  8
STANDARD
  6
AUSGEZOGEN
 62
     7
440
 33554687
370
    25
100
AcDbMText
 10
0.0418980102539062
 20
0.038491943359375
 30
0.0
 40
0.0025
 41
0.0592152913323213
 71
     7
 72
     5
  1
\W1.01;- Spezialkleber gemäss Steinlieferant
  7
ARIAL
 73
     1
 44
1.0
  0
MTEXT
  5
8C
330
84
100
AcDbEntity
  8
STANDARD
  6
AUSGEZOGEN
 62
     7
440
 33554687
370
    25
100
AcDbMText
 10
0.0796481323242187
 20
0.0436585693359375
 30
0.0
 40
0.0025
 41
0.0139188084882035
 71
     7
 72
     5
  1
\W1.00;0.006 m
  7
ARIAL
 73
     1
 44
1.0
  0
MTEXT
  5
8D
330
84
100
AcDbEntity
  8
STANDARD
  6
AUSGEZOGEN
 62
     7
440
 33554687
370
    25
100
AcDbMText
 10
0.0922674560546875
 20
0.0451170043945313
 30
0.0
 40
0.0015
 41
0.0019177307206068
 71
     7
 72
     5
  1
\W0.99;3
  7
ARIAL
 73
     1
 44
1.0
  0
MTEXT
  5
8E
330
84
100
AcDbEntity
  8
STANDARD
  6
AUSGEZOGEN
 62
     7
440
 33554687
370
    25
100
AcDbMText
 10
0.0934328002929688
 20
0.0436585693359375
 30
0.0
 40
0.0025
 41
0.0051122286079183
 71
     7
 72
     5
  1
\W0.99;/m
  7
ARIAL
 73
     1
 44
1.0
  0
MTEXT
  5
8F
330
84
100
AcDbEntity
  8
STANDARD
  6
AUSGEZOGEN
 62
     7
440
 33554687
370
    25
100
AcDbMText
 10
0.0422821044921875
 20
0.2313284912109375
 30
0.0
 40
0.004
 41
0.0879417873190215
 71
     7
 72
     5
  1
\A1;{\fArial|i0|b1;\H0.004000;\W1.000000;\C7;Verlegeprofil mit Steintyp D 9.24}\P
  7
ARIAL
 73
     1
 44
1.0
  0
MTEXT
  5
90
330
84
100
AcDbEntity
  8
STANDARD
  6
AUSGEZOGEN
 62
     7
440
 33554687
370
    25
100
AcDbMText
 10
0.0422649536132813
 20
0.2263284912109375
 30
0.0
 40
0.0025
 41
0.0450396480478769
 71
     7
 72
     5
  1
\W1.00;Massstab 1:5 (Masse in cm)
  7
ARIAL
 73
     1
 44
1.0
  0
MTEXT
  5
91
330
84
100
AcDbEntity
  8
STANDARD
  6
AUSGEZOGEN
 62
     7
440
 33554687
370
    25
100
AcDbMText
 10
0.0419246826171875
 20
0.2462451782226563
 30
0.0
 40
0.004
 41
0.0759121923297081
 71
     7
 72
     5
  1
\A1;{\fArial|i0|b1;\H0.004000;\W1.000000;\C7;Stellstein Kreiselauge 10/17}\P
  7
ARIAL
 73
     1
 44
1.0
  0
ENDBLK
  5
86
330
84
100
AcDbEntity
  8
0
100
AcDbBlockEnd
  0
BLOCK
  5
93
330
92
100
AcDbEntity
  8
0
100
AcDbBlockBegin
  2
TB_3017
 70
     0
 10
0.0
 20
0.0
 30
0.0
  3
TB_3017
  1

  0
HATCH
  5
95
330
92
100
AcDbEntity
  8
STANDARD
  6
AUSGEZOGEN
 62
   255
440
 33554687
370
    25
100
AcDbHatch
 10
0.0
 20
0.0
 30
0.0
210
0.0
220
0.0
230
1.0
  2
SOLID
 70
     1
 71
     0
 91
        1
 92
        3
 72
     0
 73
     1
 93
        4
 10
0.0479337158203125
 20
0.1619800415039062
 10
0.0479337158203125
 20
0.1479800415039063
 10
0.1012213134765625
 20
0.1479800415039063
 10
0.1012213134765625
 20
0.1619800415039062
 97
        0
 75
     0
 76
     1
 98
        0
  0
HATCH
  5
96
330
92
100
AcDbEntity
  8
STANDARD
  6
AUSGEZOGEN
 62
   254
440
 33554687
370
    25
100
AcDbHatch
 10
0.0
 20
0.0
 30
0.0
210
0.0
220
0.0
230
1.0
  2
SOLID
 70
     1
 71
     0
 91
        1
 92
        3
 72
     0
 73
     1
 93
       10
 10
0.1212213745117188
 20
0.1819800415039063
 10
0.1012213134765625
 20
0.1819800415039063
 10
0.1012213134765625
 20
0.1489168701171875
 10
0.107020263671875
 20
0.1492080078125
 10
0.1156838989257813
 20
0.1484945678710937
 10
0.1212213745117188
 20
0.1489625244140625
 10
0.121407958984375
 20
0.1573244018554688
 10
0.1207964477539063
 20
0.16262451171875
 10
0.1212213745117188
 20
0.1659800415039062
 10
0.12125830078125
 20
0.1689800415039062
 97
        0
 75
     0
 76
     1
 98
        0
  0
HATCH
  5
97
330
92
100
AcDbEntity
  8
STANDARD
  6
AUSGEZOGEN
 62
   255
440
 33554687
370
    25
100
AcDbHatch
 10
0.0
 20
0.0
 30
0.0
210
0.0
220
0.0
230
1.0
  2
SOLID
 70
     1
 71
     0
 91
        1
 92
        3
 72
     0
 73
     1
 93
        4
 10
0.0479337158203125
 20
0.1479800415039063
 10
0.0479337158203125
 20
0.0959800415039063
 10
0.1412213745117188
 20
0.0959800415039063
 10
0.1412213745117188
 20
0.1479800415039063
 97
        0
 75
     0
 76
     1
 98
        0
  0
LINE
  5
98
330
92
100
AcDbEntity
  8
STANDARD
  6
AUSGEZOGEN
 62
     7
440
 33554687
370
    35
100
AcDbLine
 10
0.122603515625
 20
0.1601973876953125
 30
0.0
 11
0.122603515625
 21
0.1601973876953125
 31
0.0
  0
LINE
  5
99
330
92
100
AcDbEntity
  8
STANDARD
  6
AUSGEZOGEN
 62
     7
440
 33554687
370
    35
100
AcDbLine
 10
0.1234785766601563
 20
0.1577723999023438
 30
0.0
 11
0.1234785766601563
 21
0.1577723999023438
 31
0.0
  0
LINE
  5
9A
330
92
100
AcDbEntity
  8
STANDARD
  6
AUSGEZOGEN
 62
     7
440
 33554687
370
    35
100
AcDbLine
 10
0.125603515625
 20
0.1605723266601563
 30
0.0
 11
0.125603515625
 21
0.1605723266601563
 31
0.0
  0
LINE
  5
9B
330
92
100
AcDbEntity
  8
STANDARD
  6
AUSGEZOGEN
 62
     7
440
 33554687
370
    35
100
AcDbLine
 10
0.12482861328125
 20
0.158597412109375
 30
0.0
 11
0.12482861328125
 21
0.158597412109375
 31
0.0
  0
LINE
  5
9C
330
92
100
AcDbEntity
  8
STANDARD
  6
AUSGEZOGEN
 62
     7
440
 33554687
370
    35
100
AcDbLine
 10
0.1283035888671875
 20
0.15767236328125
 30
0.0
 11
0.1283035888671875
 21
0.15767236328125
 31
0.0
  0
LINE
  5
9D
330
92
100
AcDbEntity
  8
STANDARD
  6
AUSGEZOGEN
 62
     7
440
 33554687
370
    35
100
AcDbLine
 10
0.129778564453125
 20
0.1582473754882812
 30
0.0
 11
0.129778564453125
 21
0.1582473754882812
 31
0.0
  0
LINE
  5
9E
330
92
100
AcDbEntity
  8
STANDARD
  6
AUSGEZOGEN
 62
     7
440
 33554687
370
    35
100
AcDbLine
 10
0.1298035278320313
 20
0.1604723510742188
 30
0.0
 11
0.1298035278320313
 21
0.1604723510742188
 31
0.0
  0
LINE
  5
9F
330
92
100
AcDbEntity
  8
STANDARD
  6
AUSGEZOGEN
 62
     7
440
 33554687
370
    35
100
AcDbLine
 10
0.1268786010742187
 20
0.1611973876953125
 30
0.0
 11
0.1268786010742187
 21
0.1611973876953125
 31
0.0
  0
LINE
  5
A0
330
92
100
AcDbEntity
  8
STANDARD
  6
AUSGEZOGEN
 62
     7
440
 33554687
370
    35
100
AcDbLine
 10
0.127528564453125
 20
0.1599973754882812
 30
0.0
 11
0.127528564453125
 21
0.1599973754882812
 31
0.0
  0
LINE
  5
A1
330
92
100
AcDbEntity
  8
STANDARD
  6
AUSGEZOGEN
 62
     7
440
 33554687
370
    35
100
AcDbLine
 10
0.1276785888671875
 20
0.1635723266601563
 30
0.0
 11
0.1276785888671875
 21
0.1635723266601563
 31
0.0
  0
LINE
  5
A2
330
92
100
AcDbEntity
  8
STANDARD
  6
AUSGEZOGEN
 62
     7
440
 33554687
370
    35
100
AcDbLine
 10
0.130528564453125
 20
0.1633473510742187
 30
0.0
 11
0.130528564453125
 21
0.1633473510742187
 31
0.0
  0
LINE
  5
A3
330
92
100
AcDbEntity
  8
STANDARD
  6
AUSGEZOGEN
 62
     7
440
 33554687
370
    35
100
AcDbLine
 10
0.1310035400390625
 20
0.1656473999023438
 30
0.0
 11
0.1310035400390625
 21
0.1656473999023438
 31
0.0
  0
LINE
  5
A4
330
92
100
AcDbEntity
  8
STANDARD
  6
AUSGEZOGEN
 62
     7
440
 33554687
370
    35
100
AcDbLine
 10
0.1279285888671875
 20
0.165222412109375
 30
0.0
 11
0.1279285888671875
 21
0.165222412109375
 31
0.0
  0
LINE
  5
A5
330
92
100
AcDbEntity
  8
STANDARD
  6
AUSGEZOGEN
 62
     7
440
 33554687
370
    35
100
AcDbLine
 10
0.1226286010742187
 20
0.1647223510742188
 30
0.0
 11
0.1226286010742187
 21
0.1647223510742188
 31
0.0
  0
LINE
  5
A6
330
92
100
AcDbEntity
  8
STANDARD
  6
AUSGEZOGEN
 62
     7
440
 33554687
370
    35
100
AcDbLine
 10
0.1330285034179688
 20
0.1590973510742187
 30
0.0
 11
0.1330285034179688
 21
0.1590973510742187
 31
0.0
  0
LINE
  5
A7
330
92
100
AcDbEntity
  8
STANDARD
  6
AUSGEZOGEN
 62
     7
440
 33554687
370
    35
100
AcDbLine
 10
0.1324285278320312
 20
0.1545474243164063
 30
0.0
 11
0.1324285278320312
 21
0.1545474243164063
 31
0.0
  0
LINE
  5
A8
330
92
100
AcDbEntity
  8
STANDARD
  6
AUSGEZOGEN
 62
     7
440
 33554687
370
    35
100
AcDbLine
 10
0.1342035522460938
 20
0.1527223510742187
 30
0.0
 11
0.1342035522460938
 21
0.1527223510742187
 31
0.0
  0
LINE
  5
A9
330
92
100
AcDbEntity
  8
STANDARD
  6
AUSGEZOGEN
 62
     7
440
 33554687
370
    35
100
AcDbLine
 10
0.1333785400390625
 20
0.1507474365234375
 30
0.0
 11
0.1333785400390625
 21
0.1507474365234375
 31
0.0
  0
LINE
  5
AA
330
92
100
AcDbEntity
  8
STANDARD
  6
AUSGEZOGEN
 62
     7
440
 33554687
370
    35
100
AcDbLine
 10
0.1354785766601563
 20
0.1493973999023437
 30
0.0
 11
0.1354785766601563
 21
0.1493973999023437
 31
0.0
  0
LINE
  5
AB
330
92
100
AcDbEntity
  8
STANDARD
  6
AUSGEZOGEN
 62
     7
440
 33554687
370
    35
100
AcDbLine
 10
0.1330035400390625
 20
0.1481973876953125
 30
0.0
 11
0.1330035400390625
 21
0.1481973876953125
 31
0.0
  0
LINE
  5
AC
330
92
100
AcDbEntity
  8
STANDARD
  6
AUSGEZOGEN
 62
     7
440
 33554687
370
    35
100
AcDbLine
 10
0.1224785766601563
 20
0.1484723510742187
 30
0.0
 11
0.1224785766601563
 21
0.1484723510742187
 31
0.0
  0
LINE
  5
AD
330
92
100
AcDbEntity
  8
STANDARD
  6
AUSGEZOGEN
 62
     7
440
 33554687
370
    35
100
AcDbLine
 10
0.1280785522460937
 20
0.1494473876953125
 30
0.0
 11
0.1280785522460937
 21
0.1494473876953125
 31
0.0
  0
LINE
  5
AE
330
92
100
AcDbEntity
  8
STANDARD
  6
AUSGEZOGEN
 62
     7
440
 33554687
370
    35
100
AcDbLine
 10
0.1304036254882812
 20
0.1506223754882813
 30
0.0
 11
0.1304036254882812
 21
0.1506223754882813
 31
0.0
  0
LINE
  5
AF
330
92
100
AcDbEntity
  8
STANDARD
  6
AUSGEZOGEN
 62
     7
440
 33554687
370
    35
100
AcDbLine
 10
0.1280535888671875
 20
0.1523223266601562
 30
0.0
 11
0.1280535888671875
 21
0.1523223266601562
 31
0.0
  0
LINE
  5
B0
330
92
100
AcDbEntity
  8
STANDARD
  6
AUSGEZOGEN
 62
     7
440
 33554687
370
    35
100
AcDbLine
 10
0.1307035522460938
 20
0.15392236328125
 30
0.0
 11
0.1307035522460938
 21
0.15392236328125
 31
0.0
  0
LINE
  5
B1
330
92
100
AcDbEntity
  8
STANDARD
  6
AUSGEZOGEN
 62
     7
440
 33554687
370
    35
100
AcDbLine
 10
0.1285785522460937
 20
0.1553973999023437
 30
0.0
 11
0.1285785522460937
 21
0.1553973999023437
 31
0.0
  0
LINE
  5
B2
330
92
100
AcDbEntity
  8
STANDARD
  6
AUSGEZOGEN
 62
     7
440
 33554687
370
    35
100
AcDbLine
 10
0.1313785400390625
 20
0.1559473266601563
 30
0.0
 11
0.1313785400390625
 21
0.1559473266601563
 31
0.0
  0
LINE
  5
B3
330
92
100
AcDbEntity
  8
STANDARD
  6
AUSGEZOGEN
 62
     7
440
 33554687
370
    35
100
AcDbLine
 10
0.1263535766601563
 20
0.155972412109375
 30
0.0
 11
0.1263535766601563
 21
0.155972412109375
 31
0.0
  0
LINE
  5
B4
330
92
100
AcDbEntity
  8
STANDARD
  6
AUSGEZOGEN
 62
     7
440
 33554687
370
    35
100
AcDbLine
 10
0.1256785888671875
 20
0.1537974243164063
 30
0.0
 11
0.1256785888671875
 21
0.1537974243164063
 31
0.0
  0
LINE
  5
B5
330
92
100
AcDbEntity
  8
STANDARD
  6
AUSGEZOGEN
 62
     7
440
 33554687
370
    35
100
AcDbLine
 10
0.1232035522460938
 20
0.1528723754882813
 30
0.0
 11
0.1232035522460938
 21
0.1528723754882813
 31
0.0
  0
LINE
  5
B6
330
92
100
AcDbEntity
  8
STANDARD
  6
AUSGEZOGEN
 62
     7
440
 33554687
370
    35
100
AcDbLine
 10
0.1232536010742187
 20
0.1557723999023438
 30
0.0
 11
0.1232536010742187
 21
0.1557723999023438
 31
0.0
  0
LINE
  5
B7
330
92
100
AcDbEntity
  8
STANDARD
  6
AUSGEZOGEN
 62
     7
440
 33554687
370
    35
100
AcDbLine
 10
0.121603515625
 20
0.1505723266601562
 30
0.0
 11
0.121603515625
 21
0.1505723266601562
 31
0.0
  0
LINE
  5
B8
330
92
100
AcDbEntity
  8
STANDARD
  6
AUSGEZOGEN
 62
     7
440
 33554687
370
    35
100
AcDbLine
 10
0.1240785522460938
 20
0.1505723266601562
 30
0.0
 11
0.1240785522460938
 21
0.1505723266601562
 31
0.0
  0
LINE
  5
B9
330
92
100
AcDbEntity
  8
STANDARD
  6
AUSGEZOGEN
 62
     7
440
 33554687
370
    35
100
AcDbLine
 10
0.12582861328125
 20
0.14967236328125
 30
0.0
 11
0.12582861328125
 21
0.14967236328125
 31
0.0
  0
LINE
  5
BA
330
92
100
AcDbEntity
  8
STANDARD
  6
AUSGEZOGEN
 62
     7
440
 33554687
370
    35
100
AcDbLine
 10
0.1274036254882812
 20
0.1508973388671875
 30
0.0
 11
0.1274036254882812
 21
0.1508973388671875
 31
0.0
  0
LINE
  5
BB
330
92
100
AcDbEntity
  8
STANDARD
  6
AUSGEZOGEN
 62
     7
440
 33554687
370
    35
100
AcDbLine
 10
0.1370035400390625
 20
0.1483473510742188
 30
0.0
 11
0.1370035400390625
 21
0.1483473510742188
 31
0.0
  0
LINE
  5
BC
330
92
100
AcDbEntity
  8
STANDARD
  6
AUSGEZOGEN
 62
     7
440
 33554687
370
    35
100
AcDbLine
 10
0.12382861328125
 20
0.162972412109375
 30
0.0
 11
0.12382861328125
 21
0.162972412109375
 31
0.0
  0
LINE
  5
BD
330
92
100
AcDbEntity
  8
STANDARD
  6
AUSGEZOGEN
 62
     7
440
 33554687
370
    35
100
AcDbLine
 10
0.1260286254882813
 20
0.1639973754882812
 30
0.0
 11
0.1260286254882813
 21
0.1639973754882812
 31
0.0
  0
LINE
  5
BE
330
92
100
AcDbEntity
  8
STANDARD
  6
AUSGEZOGEN
 62
     7
440
 33554687
370
    13
100
AcDbLine
 10
0.0616036376953125
 20
0.0691724243164062
 30
0.0
 11
0.0612536010742188
 21
0.069472412109375
 31
0.0
  0
LINE
  5
BF
330
92
100
AcDbEntity
  8
STANDARD
  6
AUSGEZOGEN
 62
     7
440
 33554687
370
    13
100
AcDbLine
 10
0.0612536010742188
 20
0.069472412109375
 30
0.0
 11
0.06082861328125
 21
0.0693223876953125
 31
0.0
  0
LINE
  5
C0
330
92
100
AcDbEntity
  8
STANDARD
  6
AUSGEZOGEN
 62
     7
440
 33554687
370
    13
100
AcDbLine
 10
0.06082861328125
 20
0.0693223876953125
 30
0.0
 11
0.0607536010742188
 21
0.0688973999023438
 31
0.0
  0
LINE
  5
C1
330
92
100
AcDbEntity
  8
STANDARD
  6
AUSGEZOGEN
 62
     7
440
 33554687
370
    13
100
AcDbLine
 10
0.0607536010742188
 20
0.0688973999023438
 30
0.0
 11
0.06107861328125
 21
0.068597412109375
 31
0.0
  0
LINE
  5
C2
330
92
100
AcDbEntity
  8
STANDARD
  6
AUSGEZOGEN
 62
     7
440
 33554687
370
    13
100
AcDbLine
 10
0.06107861328125
 20
0.068597412109375
 30
0.0
 11
0.0615036010742188
 21
0.0687474365234375
 31
0.0
  0
LINE
  5
C3
330
92
100
AcDbEntity
  8
STANDARD
  6
AUSGEZOGEN
 62
     7
440
 33554687
370
    13
100
AcDbLine
 10
0.0615036010742188
 20
0.0687474365234375
 30
0.0
 11
0.0616036376953125
 21
0.0691724243164062
 31
0.0
  0
LINE
  5
C4
330
92
100
AcDbEntity
  8
STANDARD
  6
AUSGEZOGEN
 62
     7
440
 33554687
370
    13
100
AcDbLine
 10
0.0866036376953125
 20
0.0691724243164062
 30
0.0
 11
0.0862536010742188
 21
0.069472412109375
 31
0.0
  0
LINE
  5
C5
330
92
100
AcDbEntity
  8
STANDARD
  6
AUSGEZOGEN
 62
     7
440
 33554687
370
    13
100
AcDbLine
 10
0.0862536010742188
 20
0.069472412109375
 30
0.0
 11
0.08582861328125
 21
0.0693223876953125
 31
0.0
  0
LINE
  5
C6
330
92
100
AcDbEntity
  8
STANDARD
  6
AUSGEZOGEN
 62
     7
440
 33554687
370
    13
100
AcDbLine
 10
0.08582861328125
 20
0.0693223876953125
 30
0.0
 11
0.0857536010742188
 21
0.0688973999023438
 31
0.0
  0
LINE
  5
C7
330
92
100
AcDbEntity
  8
STANDARD
  6
AUSGEZOGEN
 62
     7
440
 33554687
370
    13
100
AcDbLine
 10
0.0857536010742188
 20
0.0688973999023438
 30
0.0
 11
0.08607861328125
 21
0.068597412109375
 31
0.0
  0
LINE
  5
C8
330
92
100
AcDbEntity
  8
STANDARD
  6
AUSGEZOGEN
 62
     7
440
 33554687
370
    13
100
AcDbLine
 10
0.08607861328125
 20
0.068597412109375
 30
0.0
 11
0.0865036010742188
 21
0.0687474365234375
 31
0.0
  0
LINE
  5
C9
330
92
100
AcDbEntity
  8
STANDARD
  6
AUSGEZOGEN
 62
     7
440
 33554687
370
    13
100
AcDbLine
 10
0.0865036010742188
 20
0.0687474365234375
 30
0.0
 11
0.0866036376953125
 21
0.0691724243164062
 31
0.0
  0
LINE
  5
CA
330
92
100
AcDbEntity
  8
STANDARD
  6
AUSGEZOGEN
 62
     7
440
 33554687
370
    13
100
AcDbLine
 10
0.1116036376953125
 20
0.0691724243164062
 30
0.0
 11
0.1112536010742187
 21
0.069472412109375
 31
0.0
  0
LINE
  5
CB
330
92
100
AcDbEntity
  8
STANDARD
  6
AUSGEZOGEN
 62
     7
440
 33554687
370
    13
100
AcDbLine
 10
0.1112536010742187
 20
0.069472412109375
 30
0.0
 11
0.11082861328125
 21
0.0693223876953125
 31
0.0
  0
LINE
  5
CC
330
92
100
AcDbEntity
  8
STANDARD
  6
AUSGEZOGEN
 62
     7
440
 33554687
370
    13
100
AcDbLine
 10
0.11082861328125
 20
0.0693223876953125
 30
0.0
 11
0.1107535400390625
 21
0.0688973999023438
 31
0.0
  0
LINE
  5
CD
330
92
100
AcDbEntity
  8
STANDARD
  6
AUSGEZOGEN
 62
     7
440
 33554687
370
    13
100
AcDbLine
 10
0.1107535400390625
 20
0.0688973999023438
 30
0.0
 11
0.11107861328125
 21
0.068597412109375
 31
0.0
  0
LINE
  5
CE
330
92
100
AcDbEntity
  8
STANDARD
  6
AUSGEZOGEN
 62
     7
440
 33554687
370
    13
100
AcDbLine
 10
0.11107861328125
 20
0.068597412109375
 30
0.0
 11
0.1115036010742188
 21
0.0687474365234375
 31
0.0
  0
LINE
  5
CF
330
92
100
AcDbEntity
  8
STANDARD
  6
AUSGEZOGEN
 62
     7
440
 33554687
370
    13
100
AcDbLine
 10
0.1115036010742188
 20
0.0687474365234375
 30
0.0
 11
0.1116036376953125
 21
0.0691724243164062
 31
0.0
  0
LINE
  5
D0
330
92
100
AcDbEntity
  8
STANDARD
  6
AUSGEZOGEN
 62
     7
440
 33554687
370
    13
100
AcDbLine
 10
0.1366036376953125
 20
0.0691724243164062
 30
0.0
 11
0.1362536010742187
 21
0.069472412109375
 31
0.0
  0
LINE
  5
D1
330
92
100
AcDbEntity
  8
STANDARD
  6
AUSGEZOGEN
 62
     7
440
 33554687
370
    13
100
AcDbLine
 10
0.1362536010742187
 20
0.069472412109375
 30
0.0
 11
0.13582861328125
 21
0.0693223876953125
 31
0.0
  0
LINE
  5
D2
330
92
100
AcDbEntity
  8
STANDARD
  6
AUSGEZOGEN
 62
     7
440
 33554687
370
    13
100
AcDbLine
 10
0.13582861328125
 20
0.0693223876953125
 30
0.0
 11
0.1357535400390625
 21
0.0688973999023438
 31
0.0
  0
LINE
  5
D3
330
92
100
AcDbEntity
  8
STANDARD
  6
AUSGEZOGEN
 62
     7
440
 33554687
370
    13
100
AcDbLine
 10
0.1357535400390625
 20
0.0688973999023438
 30
0.0
 11
0.13607861328125
 21
0.068597412109375
 31
0.0
  0
LINE
  5
D4
330
92
100
AcDbEntity
  8
STANDARD
  6
AUSGEZOGEN
 62
     7
440
 33554687
370
    13
100
AcDbLine
 10
0.13607861328125
 20
0.068597412109375
 30
0.0
 11
0.1365036010742187
 21
0.0687474365234375
 31
0.0
  0
LINE
  5
D5
330
92
100
AcDbEntity
  8
STANDARD
  6
AUSGEZOGEN
 62
     7
440
 33554687
370
    13
100
AcDbLine
 10
0.1365036010742187
 20
0.0687474365234375
 30
0.0
 11
0.1366036376953125
 21
0.0691724243164062
 31
0.0
  0
LINE
  5
D6
330
92
100
AcDbEntity
  8
STANDARD
  6
AUSGEZOGEN
 62
     7
440
 33554687
370
    13
100
AcDbLine
 10
0.1616036376953125
 20
0.0691724243164062
 30
0.0
 11
0.1612536010742188
 21
0.069472412109375
 31
0.0
  0
LINE
  5
D7
330
92
100
AcDbEntity
  8
STANDARD
  6
AUSGEZOGEN
 62
     7
440
 33554687
370
    13
100
AcDbLine
 10
0.1612536010742188
 20
0.069472412109375
 30
0.0
 11
0.16082861328125
 21
0.0693223876953125
 31
0.0
  0
LINE
  5
D8
330
92
100
AcDbEntity
  8
STANDARD
  6
AUSGEZOGEN
 62
     7
440
 33554687
370
    13
100
AcDbLine
 10
0.16082861328125
 20
0.0693223876953125
 30
0.0
 11
0.1607535400390625
 21
0.0688973999023438
 31
0.0
  0
LINE
  5
D9
330
92
100
AcDbEntity
  8
STANDARD
  6
AUSGEZOGEN
 62
     7
440
 33554687
370
    13
100
AcDbLine
 10
0.1607535400390625
 20
0.0688973999023438
 30
0.0
 11
0.16107861328125
 21
0.068597412109375
 31
0.0
  0
LINE
  5
DA
330
92
100
AcDbEntity
  8
STANDARD
  6
AUSGEZOGEN
 62
     7
440
 33554687
370
    13
100
AcDbLine
 10
0.16107861328125
 20
0.068597412109375
 30
0.0
 11
0.1615036010742188
 21
0.0687474365234375
 31
0.0
  0
LINE
  5
DB
330
92
100
AcDbEntity
  8
STANDARD
  6
AUSGEZOGEN
 62
     7
440
 33554687
370
    13
100
AcDbLine
 10
0.1615036010742188
 20
0.0687474365234375
 30
0.0
 11
0.1616036376953125
 21
0.0691724243164062
 31
0.0
  0
LINE
  5
DC
330
92
100
AcDbEntity
  8
STANDARD
  6
AUSGEZOGEN
 62
     7
440
 33554687
370
    13
100
AcDbLine
 10
0.1866036376953125
 20
0.0691724243164062
 30
0.0
 11
0.1862536010742188
 21
0.069472412109375
 31
0.0
  0
LINE
  5
DD
330
92
100
AcDbEntity
  8
STANDARD
  6
AUSGEZOGEN
 62
     7
440
 33554687
370
    13
100
AcDbLine
 10
0.1862536010742188
 20
0.069472412109375
 30
0.0
 11
0.18582861328125
 21
0.0693223876953125
 31
0.0
  0
LINE
  5
DE
330
92
100
AcDbEntity
  8
STANDARD
  6
AUSGEZOGEN
 62
     7
440
 33554687
370
    13
100
AcDbLine
 10
0.18582861328125
 20
0.0693223876953125
 30
0.0
 11
0.1857535400390625
 21
0.0688973999023438
 31
0.0
  0
LINE
  5
DF
330
92
100
AcDbEntity
  8
STANDARD
  6
AUSGEZOGEN
 62
     7
440
 33554687
370
    13
100
AcDbLine
 10
0.1857535400390625
 20
0.0688973999023438
 30
0.0
 11
0.18607861328125
 21
0.068597412109375
 31
0.0
  0
LINE
  5
E0
330
92
100
AcDbEntity
  8
STANDARD
  6
AUSGEZOGEN
 62
     7
440
 33554687
370
    13
100
AcDbLine
 10
0.18607861328125
 20
0.068597412109375
 30
0.0
 11
0.1865036010742188
 21
0.0687474365234375
 31
0.0
  0
LINE
  5
E1
330
92
100
AcDbEntity
  8
STANDARD
  6
AUSGEZOGEN
 62
     7
440
 33554687
370
    13
100
AcDbLine
 10
0.1865036010742188
 20
0.0687474365234375
 30
0.0
 11
0.1866036376953125
 21
0.0691724243164062
 31
0.0
  0
LINE
  5
E2
330
92
100
AcDbEntity
  8
STANDARD
  6
AUSGEZOGEN
 62
     7
440
 33554687
370
    13
100
AcDbLine
 10
0.066853515625
 20
0.07529736328125
 30
0.0
 11
0.066528564453125
 21
0.075597412109375
 31
0.0
  0
LINE
  5
E3
330
92
100
AcDbEntity
  8
STANDARD
  6
AUSGEZOGEN
 62
     7
440
 33554687
370
    13
100
AcDbLine
 10
0.066528564453125
 20
0.075597412109375
 30
0.0
 11
0.06607861328125
 21
0.0754473876953125
 31
0.0
  0
LINE
  5
E4
330
92
100
AcDbEntity
  8
STANDARD
  6
AUSGEZOGEN
 62
     7
440
 33554687
370
    13
100
AcDbLine
 10
0.06607861328125
 20
0.0754473876953125
 30
0.0
 11
0.0660035400390625
 21
0.0749974365234375
 31
0.0
  0
LINE
  5
E5
330
92
100
AcDbEntity
  8
STANDARD
  6
AUSGEZOGEN
 62
     7
440
 33554687
370
    13
100
AcDbLine
 10
0.0660035400390625
 20
0.0749974365234375
 30
0.0
 11
0.0663535766601562
 21
0.0746973876953125
 31
0.0
  0
LINE
  5
E6
330
92
100
AcDbEntity
  8
STANDARD
  6
AUSGEZOGEN
 62
     7
440
 33554687
370
    13
100
AcDbLine
 10
0.0663535766601562
 20
0.0746973876953125
 30
0.0
 11
0.066778564453125
 21
0.074847412109375
 31
0.0
  0
LINE
  5
E7
330
92
100
AcDbEntity
  8
STANDARD
  6
AUSGEZOGEN
 62
     7
440
 33554687
370
    13
100
AcDbLine
 10
0.066778564453125
 20
0.074847412109375
 30
0.0
 11
0.066853515625
 21
0.07529736328125
 31
0.0
  0
LINE
  5
E8
330
92
100
AcDbEntity
  8
STANDARD
  6
AUSGEZOGEN
 62
     7
440
 33554687
370
    13
100
AcDbLine
 10
0.0918535766601563
 20
0.07529736328125
 30
0.0
 11
0.091528564453125
 21
0.075597412109375
 31
0.0
  0
LINE
  5
E9
330
92
100
AcDbEntity
  8
STANDARD
  6
AUSGEZOGEN
 62
     7
440
 33554687
370
    13
100
AcDbLine
 10
0.091528564453125
 20
0.075597412109375
 30
0.0
 11
0.09107861328125
 21
0.0754473876953125
 31
0.0
  0
LINE
  5
EA
330
92
100
AcDbEntity
  8
STANDARD
  6
AUSGEZOGEN
 62
     7
440
 33554687
370
    13
100
AcDbLine
 10
0.09107861328125
 20
0.0754473876953125
 30
0.0
 11
0.0910035400390625
 21
0.0749974365234375
 31
0.0
  0
LINE
  5
EB
330
92
100
AcDbEntity
  8
STANDARD
  6
AUSGEZOGEN
 62
     7
440
 33554687
370
    13
100
AcDbLine
 10
0.0910035400390625
 20
0.0749974365234375
 30
0.0
 11
0.0913535766601563
 21
0.0746973876953125
 31
0.0
  0
LINE
  5
EC
330
92
100
AcDbEntity
  8
STANDARD
  6
AUSGEZOGEN
 62
     7
440
 33554687
370
    13
100
AcDbLine
 10
0.0913535766601563
 20
0.0746973876953125
 30
0.0
 11
0.091778564453125
 21
0.074847412109375
 31
0.0
  0
LINE
  5
ED
330
92
100
AcDbEntity
  8
STANDARD
  6
AUSGEZOGEN
 62
     7
440
 33554687
370
    13
100
AcDbLine
 10
0.091778564453125
 20
0.074847412109375
 30
0.0
 11
0.0918535766601563
 21
0.07529736328125
 31
0.0
  0
LINE
  5
EE
330
92
100
AcDbEntity
  8
STANDARD
  6
AUSGEZOGEN
 62
     7
440
 33554687
370
    13
100
AcDbLine
 10
0.1168535766601562
 20
0.07529736328125
 30
0.0
 11
0.116528564453125
 21
0.075597412109375
 31
0.0
  0
LINE
  5
EF
330
92
100
AcDbEntity
  8
STANDARD
  6
AUSGEZOGEN
 62
     7
440
 33554687
370
    13
100
AcDbLine
 10
0.116528564453125
 20
0.075597412109375
 30
0.0
 11
0.11607861328125
 21
0.0754473876953125
 31
0.0
  0
LINE
  5
F0
330
92
100
AcDbEntity
  8
STANDARD
  6
AUSGEZOGEN
 62
     7
440
 33554687
370
    13
100
AcDbLine
 10
0.11607861328125
 20
0.0754473876953125
 30
0.0
 11
0.1160035400390625
 21
0.0749974365234375
 31
0.0
  0
LINE
  5
F1
330
92
100
AcDbEntity
  8
STANDARD
  6
AUSGEZOGEN
 62
     7
440
 33554687
370
    13
100
AcDbLine
 10
0.1160035400390625
 20
0.0749974365234375
 30
0.0
 11
0.1163535766601562
 21
0.0746973876953125
 31
0.0
  0
LINE
  5
F2
330
92
100
AcDbEntity
  8
STANDARD
  6
AUSGEZOGEN
 62
     7
440
 33554687
370
    13
100
AcDbLine
 10
0.1163535766601562
 20
0.0746973876953125
 30
0.0
 11
0.116778564453125
 21
0.074847412109375
 31
0.0
  0
LINE
  5
F3
330
92
100
AcDbEntity
  8
STANDARD
  6
AUSGEZOGEN
 62
     7
440
 33554687
370
    13
100
AcDbLine
 10
0.116778564453125
 20
0.074847412109375
 30
0.0
 11
0.1168535766601562
 21
0.07529736328125
 31
0.0
  0
LINE
  5
F4
330
92
100
AcDbEntity
  8
STANDARD
  6
AUSGEZOGEN
 62
     7
440
 33554687
370
    13
100
AcDbLine
 10
0.1418535766601562
 20
0.07529736328125
 30
0.0
 11
0.141528564453125
 21
0.075597412109375
 31
0.0
  0
LINE
  5
F5
330
92
100
AcDbEntity
  8
STANDARD
  6
AUSGEZOGEN
 62
     7
440
 33554687
370
    13
100
AcDbLine
 10
0.141528564453125
 20
0.075597412109375
 30
0.0
 11
0.14107861328125
 21
0.0754473876953125
 31
0.0
  0
LINE
  5
F6
330
92
100
AcDbEntity
  8
STANDARD
  6
AUSGEZOGEN
 62
     7
440
 33554687
370
    13
100
AcDbLine
 10
0.14107861328125
 20
0.0754473876953125
 30
0.0
 11
0.1410035400390625
 21
0.0749974365234375
 31
0.0
  0
LINE
  5
F7
330
92
100
AcDbEntity
  8
STANDARD
  6
AUSGEZOGEN
 62
     7
440
 33554687
370
    13
100
AcDbLine
 10
0.1410035400390625
 20
0.0749974365234375
 30
0.0
 11
0.1413535766601562
 21
0.0746973876953125
 31
0.0
  0
LINE
  5
F8
330
92
100
AcDbEntity
  8
STANDARD
  6
AUSGEZOGEN
 62
     7
440
 33554687
370
    13
100
AcDbLine
 10
0.1413535766601562
 20
0.0746973876953125
 30
0.0
 11
0.141778564453125
 21
0.074847412109375
 31
0.0
  0
LINE
  5
F9
330
92
100
AcDbEntity
  8
STANDARD
  6
AUSGEZOGEN
 62
     7
440
 33554687
370
    13
100
AcDbLine
 10
0.141778564453125
 20
0.074847412109375
 30
0.0
 11
0.1418535766601562
 21
0.07529736328125
 31
0.0
  0
LINE
  5
FA
330
92
100
AcDbEntity
  8
STANDARD
  6
AUSGEZOGEN
 62
     7
440
 33554687
370
    13
100
AcDbLine
 10
0.1668535766601563
 20
0.07529736328125
 30
0.0
 11
0.166528564453125
 21
0.075597412109375
 31
0.0
  0
LINE
  5
FB
330
92
100
AcDbEntity
  8
STANDARD
  6
AUSGEZOGEN
 62
     7
440
 33554687
370
    13
100
AcDbLine
 10
0.166528564453125
 20
0.075597412109375
 30
0.0
 11
0.16607861328125
 21
0.0754473876953125
 31
0.0
  0
LINE
  5
FC
330
92
100
AcDbEntity
  8
STANDARD
  6
AUSGEZOGEN
 62
     7
440
 33554687
370
    13
100
AcDbLine
 10
0.16607861328125
 20
0.0754473876953125
 30
0.0
 11
0.1660035400390625
 21
0.0749974365234375
 31
0.0
  0
LINE
  5
FD
330
92
100
AcDbEntity
  8
STANDARD
  6
AUSGEZOGEN
 62
     7
440
 33554687
370
    13
100
AcDbLine
 10
0.1660035400390625
 20
0.0749974365234375
 30
0.0
 11
0.1663535766601563
 21
0.0746973876953125
 31
0.0
  0
LINE
  5
FE
330
92
100
AcDbEntity
  8
STANDARD
  6
AUSGEZOGEN
 62
     7
440
 33554687
370
    13
100
AcDbLine
 10
0.1663535766601563
 20
0.0746973876953125
 30
0.0
 11
0.166778564453125
 21
0.074847412109375
 31
0.0
  0
LINE
  5
FF
330
92
100
AcDbEntity
  8
STANDARD
  6
AUSGEZOGEN
 62
     7
440
 33554687
370
    13
100
AcDbLine
 10
0.166778564453125
 20
0.074847412109375
 30
0.0
 11
0.1668535766601563
 21
0.07529736328125
 31
0.0
  0
LINE
  5
100
330
92
100
AcDbEntity
  8
STANDARD
  6
AUSGEZOGEN
 62
     7
440
 33554687
370
    13
100
AcDbLine
 10
0.0494785766601563
 20
0.0799474487304687
 30
0.0
 11
0.0494571472838685
 21
0.0799672241210937
 31
0.0
  0
LINE
  5
101
330
92
100
AcDbEntity
  8
STANDARD
  6
AUSGEZOGEN
 62
     7
440
 33554687
370
    13
100
AcDbLine
 10
0.0486996458305073
 20
0.0799672241210937
 30
0.0
 11
0.0486285400390625
 21
0.0796473999023437
 31
0.0
  0
LINE
  5
102
330
92
100
AcDbEntity
  8
STANDARD
  6
AUSGEZOGEN
 62
     7
440
 33554687
370
    13
100
AcDbLine
 10
0.0486285400390625
 20
0.0796473999023437
 30
0.0
 11
0.0489785766601563
 21
0.0793473510742188
 31
0.0
  0
LINE
  5
103
330
92
100
AcDbEntity
  8
STANDARD
  6
AUSGEZOGEN
 62
     7
440
 33554687
370
    13
100
AcDbLine
 10
0.0489785766601563
 20
0.0793473510742188
 30
0.0
 11
0.049403564453125
 21
0.0794973754882813
 31
0.0
  0
LINE
  5
104
330
92
100
AcDbEntity
  8
STANDARD
  6
AUSGEZOGEN
 62
     7
440
 33554687
370
    13
100
AcDbLine
 10
0.049403564453125
 20
0.0794973754882813
 30
0.0
 11
0.0494785766601563
 21
0.0799474487304687
 31
0.0
  0
LINE
  5
105
330
92
100
AcDbEntity
  8
STANDARD
  6
AUSGEZOGEN
 62
     7
440
 33554687
370
    13
100
AcDbLine
 10
0.0744785766601563
 20
0.0799474487304687
 30
0.0
 11
0.0744571472838685
 21
0.0799672241210937
 31
0.0
  0
LINE
  5
106
330
92
100
AcDbEntity
  8
STANDARD
  6
AUSGEZOGEN
 62
     7
440
 33554687
370
    13
100
AcDbLine
 10
0.0736996458305073
 20
0.0799672241210937
 30
0.0
 11
0.0736285400390625
 21
0.0796473999023437
 31
0.0
  0
LINE
  5
107
330
92
100
AcDbEntity
  8
STANDARD
  6
AUSGEZOGEN
 62
     7
440
 33554687
370
    13
100
AcDbLine
 10
0.0736285400390625
 20
0.0796473999023437
 30
0.0
 11
0.0739785766601563
 21
0.0793473510742188
 31
0.0
  0
LINE
  5
108
330
92
100
AcDbEntity
  8
STANDARD
  6
AUSGEZOGEN
 62
     7
440
 33554687
370
    13
100
AcDbLine
 10
0.0739785766601563
 20
0.0793473510742188
 30
0.0
 11
0.074403564453125
 21
0.0794973754882813
 31
0.0
  0
LINE
  5
109
330
92
100
AcDbEntity
  8
STANDARD
  6
AUSGEZOGEN
 62
     7
440
 33554687
370
    13
100
AcDbLine
 10
0.074403564453125
 20
0.0794973754882813
 30
0.0
 11
0.0744785766601563
 21
0.0799474487304687
 31
0.0
  0
LINE
  5
10A
330
92
100
AcDbEntity
  8
STANDARD
  6
AUSGEZOGEN
 62
     7
440
 33554687
370
    13
100
AcDbLine
 10
0.0994785766601562
 20
0.0799474487304687
 30
0.0
 11
0.0994571472838685
 21
0.0799672241210937
 31
0.0
  0
LINE
  5
10B
330
92
100
AcDbEntity
  8
STANDARD
  6
AUSGEZOGEN
 62
     7
440
 33554687
370
    13
100
AcDbLine
 10
0.0986996634820202
 20
0.0799672241210937
 30
0.0
 11
0.0986286010742188
 21
0.0796473999023437
 31
0.0
  0
LINE
  5
10C
330
92
100
AcDbEntity
  8
STANDARD
  6
AUSGEZOGEN
 62
     7
440
 33554687
370
    13
100
AcDbLine
 10
0.0986286010742188
 20
0.0796473999023437
 30
0.0
 11
0.0989785766601562
 21
0.0793473510742188
 31
0.0
  0
LINE
  5
10D
330
92
100
AcDbEntity
  8
STANDARD
  6
AUSGEZOGEN
 62
     7
440
 33554687
370
    13
100
AcDbLine
 10
0.0989785766601562
 20
0.0793473510742188
 30
0.0
 11
0.0994036254882813
 21
0.0794973754882813
 31
0.0
  0
LINE
  5
10E
330
92
100
AcDbEntity
  8
STANDARD
  6
AUSGEZOGEN
 62
     7
440
 33554687
370
    13
100
AcDbLine
 10
0.0994036254882813
 20
0.0794973754882813
 30
0.0
 11
0.0994785766601562
 21
0.0799474487304687
 31
0.0
  0
LINE
  5
10F
330
92
100
AcDbEntity
  8
STANDARD
  6
AUSGEZOGEN
 62
     7
440
 33554687
370
    13
100
AcDbLine
 10
0.1244785766601563
 20
0.0799474487304687
 30
0.0
 11
0.1244571472838685
 21
0.0799672241210937
 31
0.0
  0
LINE
  5
110
330
92
100
AcDbEntity
  8
STANDARD
  6
AUSGEZOGEN
 62
     7
440
 33554687
370
    13
100
AcDbLine
 10
0.1236996634820202
 20
0.0799672241210937
 30
0.0
 11
0.1236286010742187
 21
0.0796473999023437
 31
0.0
  0
LINE
  5
111
330
92
100
AcDbEntity
  8
STANDARD
  6
AUSGEZOGEN
 62
     7
440
 33554687
370
    13
100
AcDbLine
 10
0.1236286010742187
 20
0.0796473999023437
 30
0.0
 11
0.1239785766601563
 21
0.0793473510742188
 31
0.0
  0
LINE
  5
112
330
92
100
AcDbEntity
  8
STANDARD
  6
AUSGEZOGEN
 62
     7
440
 33554687
370
    13
100
AcDbLine
 10
0.1239785766601563
 20
0.0793473510742188
 30
0.0
 11
0.1244036254882813
 21
0.0794973754882813
 31
0.0
  0
LINE
  5
113
330
92
100
AcDbEntity
  8
STANDARD
  6
AUSGEZOGEN
 62
     7
440
 33554687
370
    13
100
AcDbLine
 10
0.1244036254882813
 20
0.0794973754882813
 30
0.0
 11
0.1244785766601563
 21
0.0799474487304687
 31
0.0
  0
LINE
  5
114
330
92
100
AcDbEntity
  8
STANDARD
  6
AUSGEZOGEN
 62
     7
440
 33554687
370
    13
100
AcDbLine
 10
0.1494785766601563
 20
0.0799474487304687
 30
0.0
 11
0.1494571472838685
 21
0.0799672241210937
 31
0.0
  0
LINE
  5
115
330
92
100
AcDbEntity
  8
STANDARD
  6
AUSGEZOGEN
 62
     7
440
 33554687
370
    13
100
AcDbLine
 10
0.1486996634820202
 20
0.0799672241210937
 30
0.0
 11
0.1486286010742187
 21
0.0796473999023437
 31
0.0
  0
LINE
  5
116
330
92
100
AcDbEntity
  8
STANDARD
  6
AUSGEZOGEN
 62
     7
440
 33554687
370
    13
100
AcDbLine
 10
0.1486286010742187
 20
0.0796473999023437
 30
0.0
 11
0.1489786376953125
 21
0.0793473510742188
 31
0.0
  0
LINE
  5
117
330
92
100
AcDbEntity
  8
STANDARD
  6
AUSGEZOGEN
 62
     7
440
 33554687
370
    13
100
AcDbLine
 10
0.1489786376953125
 20
0.0793473510742188
 30
0.0
 11
0.1494036254882813
 21
0.0794973754882813
 31
0.0
  0
LINE
  5
118
330
92
100
AcDbEntity
  8
STANDARD
  6
AUSGEZOGEN
 62
     7
440
 33554687
370
    13
100
AcDbLine
 10
0.1494036254882813
 20
0.0794973754882813
 30
0.0
 11
0.1494785766601563
 21
0.0799474487304687
 31
0.0
  0
LINE
  5
119
330
92
100
AcDbEntity
  8
STANDARD
  6
AUSGEZOGEN
 62
     7
440
 33554687
370
    13
100
AcDbLine
 10
0.1744785766601563
 20
0.0799474487304687
 30
0.0
 11
0.1744571472838685
 21
0.0799672241210937
 31
0.0
  0
LINE
  5
11A
330
92
100
AcDbEntity
  8
STANDARD
  6
AUSGEZOGEN
 62
     7
440
 33554687
370
    13
100
AcDbLine
 10
0.1736996634820202
 20
0.0799672241210937
 30
0.0
 11
0.1736286010742188
 21
0.0796473999023437
 31
0.0
  0
LINE
  5
11B
330
92
100
AcDbEntity
  8
STANDARD
  6
AUSGEZOGEN
 62
     7
440
 33554687
370
    13
100
AcDbLine
 10
0.1736286010742188
 20
0.0796473999023437
 30
0.0
 11
0.1739786376953125
 21
0.0793473510742188
 31
0.0
  0
LINE
  5
11C
330
92
100
AcDbEntity
  8
STANDARD
  6
AUSGEZOGEN
 62
     7
440
 33554687
370
    13
100
AcDbLine
 10
0.1739786376953125
 20
0.0793473510742188
 30
0.0
 11
0.1744036254882813
 21
0.0794973754882813
 31
0.0
  0
LINE
  5
11D
330
92
100
AcDbEntity
  8
STANDARD
  6
AUSGEZOGEN
 62
     7
440
 33554687
370
    13
100
AcDbLine
 10
0.1744036254882813
 20
0.0794973754882813
 30
0.0
 11
0.1744785766601563
 21
0.0799474487304687
 31
0.0
  0
LINE
  5
11E
330
92
100
AcDbEntity
  8
STANDARD
  6
AUSGEZOGEN
 62
     7
440
 33554687
370
    13
100
AcDbLine
 10
0.0547536010742187
 20
0.0697474365234375
 30
0.0
 11
0.0544285278320313
 21
0.0700474243164062
 31
0.0
  0
LINE
  5
11F
330
92
100
AcDbEntity
  8
STANDARD
  6
AUSGEZOGEN
 62
     7
440
 33554687
370
    13
100
AcDbLine
 10
0.0544285278320313
 20
0.0700474243164062
 30
0.0
 11
0.0540035400390625
 21
0.0698973999023438
 31
0.0
  0
LINE
  5
120
330
92
100
AcDbEntity
  8
STANDARD
  6
AUSGEZOGEN
 62
     7
440
 33554687
370
    13
100
AcDbLine
 10
0.0540035400390625
 20
0.0698973999023438
 30
0.0
 11
0.053903564453125
 21
0.0694473876953125
 31
0.0
  0
LINE
  5
121
330
92
100
AcDbEntity
  8
STANDARD
  6
AUSGEZOGEN
 62
     7
440
 33554687
370
    13
100
AcDbLine
 10
0.053903564453125
 20
0.0694473876953125
 30
0.0
 11
0.0542536010742187
 21
0.0691724243164062
 31
0.0
  0
LINE
  5
122
330
92
100
AcDbEntity
  8
STANDARD
  6
AUSGEZOGEN
 62
     7
440
 33554687
370
    13
100
AcDbLine
 10
0.0542536010742187
 20
0.0691724243164062
 30
0.0
 11
0.0546785888671875
 21
0.0693223876953125
 31
0.0
  0
LINE
  5
123
330
92
100
AcDbEntity
  8
STANDARD
  6
AUSGEZOGEN
 62
     7
440
 33554687
370
    13
100
AcDbLine
 10
0.0546785888671875
 20
0.0693223876953125
 30
0.0
 11
0.0547536010742187
 21
0.0697474365234375
 31
0.0
  0
LINE
  5
124
330
92
100
AcDbEntity
  8
STANDARD
  6
AUSGEZOGEN
 62
     7
440
 33554687
370
    13
100
AcDbLine
 10
0.0797536010742187
 20
0.0697474365234375
 30
0.0
 11
0.0794285278320312
 21
0.0700474243164062
 31
0.0
  0
LINE
  5
125
330
92
100
AcDbEntity
  8
STANDARD
  6
AUSGEZOGEN
 62
     7
440
 33554687
370
    13
100
AcDbLine
 10
0.0794285278320312
 20
0.0700474243164062
 30
0.0
 11
0.0790035400390625
 21
0.0698973999023438
 31
0.0
  0
LINE
  5
126
330
92
100
AcDbEntity
  8
STANDARD
  6
AUSGEZOGEN
 62
     7
440
 33554687
370
    13
100
AcDbLine
 10
0.0790035400390625
 20
0.0698973999023438
 30
0.0
 11
0.078903564453125
 21
0.0694473876953125
 31
0.0
  0
LINE
  5
127
330
92
100
AcDbEntity
  8
STANDARD
  6
AUSGEZOGEN
 62
     7
440
 33554687
370
    13
100
AcDbLine
 10
0.078903564453125
 20
0.0694473876953125
 30
0.0
 11
0.0792536010742187
 21
0.0691724243164062
 31
0.0
  0
LINE
  5
128
330
92
100
AcDbEntity
  8
STANDARD
  6
AUSGEZOGEN
 62
     7
440
 33554687
370
    13
100
AcDbLine
 10
0.0792536010742187
 20
0.0691724243164062
 30
0.0
 11
0.0796785888671875
 21
0.0693223876953125
 31
0.0
  0
LINE
  5
129
330
92
100
AcDbEntity
  8
STANDARD
  6
AUSGEZOGEN
 62
     7
440
 33554687
370
    13
100
AcDbLine
 10
0.0796785888671875
 20
0.0693223876953125
 30
0.0
 11
0.0797536010742187
 21
0.0697474365234375
 31
0.0
  0
LINE
  5
12A
330
92
100
AcDbEntity
  8
STANDARD
  6
AUSGEZOGEN
 62
     7
440
 33554687
370
    13
100
AcDbLine
 10
0.1047535400390625
 20
0.0697474365234375
 30
0.0
 11
0.1044285278320313
 21
0.0700474243164062
 31
0.0
  0
LINE
  5
12B
330
92
100
AcDbEntity
  8
STANDARD
  6
AUSGEZOGEN
 62
     7
440
 33554687
370
    13
100
AcDbLine
 10
0.1044285278320313
 20
0.0700474243164062
 30
0.0
 11
0.1040035400390625
 21
0.0698973999023438
 31
0.0
  0
LINE
  5
12C
330
92
100
AcDbEntity
  8
STANDARD
  6
AUSGEZOGEN
 62
     7
440
 33554687
370
    13
100
AcDbLine
 10
0.1040035400390625
 20
0.0698973999023438
 30
0.0
 11
0.103903564453125
 21
0.0694473876953125
 31
0.0
  0
LINE
  5
12D
330
92
100
AcDbEntity
  8
STANDARD
  6
AUSGEZOGEN
 62
     7
440
 33554687
370
    13
100
AcDbLine
 10
0.103903564453125
 20
0.0694473876953125
 30
0.0
 11
0.1042536010742188
 21
0.0691724243164062
 31
0.0
  0
LINE
  5
12E
330
92
100
AcDbEntity
  8
STANDARD
  6
AUSGEZOGEN
 62
     7
440
 33554687
370
    13
100
AcDbLine
 10
0.1042536010742188
 20
0.0691724243164062
 30
0.0
 11
0.1046785888671875
 21
0.0693223876953125
 31
0.0
  0
LINE
  5
12F
330
92
100
AcDbEntity
  8
STANDARD
  6
AUSGEZOGEN
 62
     7
440
 33554687
370
    13
100
AcDbLine
 10
0.1046785888671875
 20
0.0693223876953125
 30
0.0
 11
0.1047535400390625
 21
0.0697474365234375
 31
0.0
  0
LINE
  5
130
330
92
100
AcDbEntity
  8
STANDARD
  6
AUSGEZOGEN
 62
     7
440
 33554687
370
    13
100
AcDbLine
 10
0.1297535400390625
 20
0.0697474365234375
 30
0.0
 11
0.1294285278320313
 21
0.0700474243164062
 31
0.0
  0
LINE
  5
131
330
92
100
AcDbEntity
  8
STANDARD
  6
AUSGEZOGEN
 62
     7
440
 33554687
370
    13
100
AcDbLine
 10
0.1294285278320313
 20
0.0700474243164062
 30
0.0
 11
0.1290035400390625
 21
0.0698973999023438
 31
0.0
  0
LINE
  5
132
330
92
100
AcDbEntity
  8
STANDARD
  6
AUSGEZOGEN
 62
     7
440
 33554687
370
    13
100
AcDbLine
 10
0.1290035400390625
 20
0.0698973999023438
 30
0.0
 11
0.128903564453125
 21
0.0694473876953125
 31
0.0
  0
LINE
  5
133
330
92
100
AcDbEntity
  8
STANDARD
  6
AUSGEZOGEN
 62
     7
440
 33554687
370
    13
100
AcDbLine
 10
0.128903564453125
 20
0.0694473876953125
 30
0.0
 11
0.1292536010742188
 21
0.0691724243164062
 31
0.0
  0
LINE
  5
134
330
92
100
AcDbEntity
  8
STANDARD
  6
AUSGEZOGEN
 62
     7
440
 33554687
370
    13
100
AcDbLine
 10
0.1292536010742188
 20
0.0691724243164062
 30
0.0
 11
0.1296785888671875
 21
0.0693223876953125
 31
0.0
  0
LINE
  5
135
330
92
100
AcDbEntity
  8
STANDARD
  6
AUSGEZOGEN
 62
     7
440
 33554687
370
    13
100
AcDbLine
 10
0.1296785888671875
 20
0.0693223876953125
 30
0.0
 11
0.1297535400390625
 21
0.0697474365234375
 31
0.0
  0
LINE
  5
136
330
92
100
AcDbEntity
  8
STANDARD
  6
AUSGEZOGEN
 62
     7
440
 33554687
370
    13
100
AcDbLine
 10
0.1547535400390625
 20
0.0697474365234375
 30
0.0
 11
0.1544285888671875
 21
0.0700474243164062
 31
0.0
  0
LINE
  5
137
330
92
100
AcDbEntity
  8
STANDARD
  6
AUSGEZOGEN
 62
     7
440
 33554687
370
    13
100
AcDbLine
 10
0.1544285888671875
 20
0.0700474243164062
 30
0.0
 11
0.1540035400390625
 21
0.0698973999023438
 31
0.0
  0
LINE
  5
138
330
92
100
AcDbEntity
  8
STANDARD
  6
AUSGEZOGEN
 62
     7
440
 33554687
370
    13
100
AcDbLine
 10
0.1540035400390625
 20
0.0698973999023438
 30
0.0
 11
0.153903564453125
 21
0.0694473876953125
 31
0.0
  0
LINE
  5
139
330
92
100
AcDbEntity
  8
STANDARD
  6
AUSGEZOGEN
 62
     7
440
 33554687
370
    13
100
AcDbLine
 10
0.153903564453125
 20
0.0694473876953125
 30
0.0
 11
0.1542536010742188
 21
0.0691724243164062
 31
0.0
  0
LINE
  5
13A
330
92
100
AcDbEntity
  8
STANDARD
  6
AUSGEZOGEN
 62
     7
440
 33554687
370
    13
100
AcDbLine
 10
0.1542536010742188
 20
0.0691724243164062
 30
0.0
 11
0.1546785888671875
 21
0.0693223876953125
 31
0.0
  0
LINE
  5
13B
330
92
100
AcDbEntity
  8
STANDARD
  6
AUSGEZOGEN
 62
     7
440
 33554687
370
    13
100
AcDbLine
 10
0.1546785888671875
 20
0.0693223876953125
 30
0.0
 11
0.1547535400390625
 21
0.0697474365234375
 31
0.0
  0
LINE
  5
13C
330
92
100
AcDbEntity
  8
STANDARD
  6
AUSGEZOGEN
 62
     7
440
 33554687
370
    13
100
AcDbLine
 10
0.1797535400390625
 20
0.0697474365234375
 30
0.0
 11
0.1794285888671875
 21
0.0700474243164062
 31
0.0
  0
LINE
  5
13D
330
92
100
AcDbEntity
  8
STANDARD
  6
AUSGEZOGEN
 62
     7
440
 33554687
370
    13
100
AcDbLine
 10
0.1794285888671875
 20
0.0700474243164062
 30
0.0
 11
0.1790035400390625
 21
0.0698973999023438
 31
0.0
  0
LINE
  5
13E
330
92
100
AcDbEntity
  8
STANDARD
  6
AUSGEZOGEN
 62
     7
440
 33554687
370
    13
100
AcDbLine
 10
0.1790035400390625
 20
0.0698973999023438
 30
0.0
 11
0.178903564453125
 21
0.0694473876953125
 31
0.0
  0
LINE
  5
13F
330
92
100
AcDbEntity
  8
STANDARD
  6
AUSGEZOGEN
 62
     7
440
 33554687
370
    13
100
AcDbLine
 10
0.178903564453125
 20
0.0694473876953125
 30
0.0
 11
0.1792536010742188
 21
0.0691724243164062
 31
0.0
  0
LINE
  5
140
330
92
100
AcDbEntity
  8
STANDARD
  6
AUSGEZOGEN
 62
     7
440
 33554687
370
    13
100
AcDbLine
 10
0.1792536010742188
 20
0.0691724243164062
 30
0.0
 11
0.1796785888671875
 21
0.0693223876953125
 31
0.0
  0
LINE
  5
141
330
92
100
AcDbEntity
  8
STANDARD
  6
AUSGEZOGEN
 62
     7
440
 33554687
370
    13
100
AcDbLine
 10
0.1796785888671875
 20
0.0693223876953125
 30
0.0
 11
0.1797535400390625
 21
0.0697474365234375
 31
0.0
  0
LINE
  5
142
330
92
100
AcDbEntity
  8
STANDARD
  6
AUSGEZOGEN
 62
     7
440
 33554687
370
    13
100
AcDbLine
 10
0.0611785888671875
 20
0.076972412109375
 30
0.0
 11
0.0613535766601562
 21
0.0769474487304688
 31
0.0
  0
LINE
  5
143
330
92
100
AcDbEntity
  8
STANDARD
  6
AUSGEZOGEN
 62
     7
440
 33554687
370
    13
100
AcDbLine
 10
0.0613535766601562
 20
0.0769474487304688
 30
0.0
 11
0.0615036010742188
 21
0.0770973510742188
 31
0.0
  0
LINE
  5
144
330
92
100
AcDbEntity
  8
STANDARD
  6
AUSGEZOGEN
 62
     7
440
 33554687
370
    13
100
AcDbLine
 10
0.0615036010742188
 20
0.0770973510742188
 30
0.0
 11
0.0614285278320313
 21
0.0772723999023437
 31
0.0
  0
LINE
  5
145
330
92
100
AcDbEntity
  8
STANDARD
  6
AUSGEZOGEN
 62
     7
440
 33554687
370
    13
100
AcDbLine
 10
0.0614285278320313
 20
0.0772723999023437
 30
0.0
 11
0.0612286376953125
 21
0.07729736328125
 31
0.0
  0
LINE
  5
146
330
92
100
AcDbEntity
  8
STANDARD
  6
AUSGEZOGEN
 62
     7
440
 33554687
370
    13
100
AcDbLine
 10
0.0612286376953125
 20
0.07729736328125
 30
0.0
 11
0.0611035766601562
 21
0.0771473388671875
 31
0.0
  0
LINE
  5
147
330
92
100
AcDbEntity
  8
STANDARD
  6
AUSGEZOGEN
 62
     7
440
 33554687
370
    13
100
AcDbLine
 10
0.0611035766601562
 20
0.0771473388671875
 30
0.0
 11
0.0611785888671875
 21
0.076972412109375
 31
0.0
  0
LINE
  5
148
330
92
100
AcDbEntity
  8
STANDARD
  6
AUSGEZOGEN
 62
     7
440
 33554687
370
    13
100
AcDbLine
 10
0.0861786499023438
 20
0.076972412109375
 30
0.0
 11
0.0863535766601563
 21
0.0769474487304688
 31
0.0
  0
LINE
  5
149
330
92
100
AcDbEntity
  8
STANDARD
  6
AUSGEZOGEN
 62
     7
440
 33554687
370
    13
100
AcDbLine
 10
0.0863535766601563
 20
0.0769474487304688
 30
0.0
 11
0.0865036010742188
 21
0.0770973510742188
 31
0.0
  0
LINE
  5
14A
330
92
100
AcDbEntity
  8
STANDARD
  6
AUSGEZOGEN
 62
     7
440
 33554687
370
    13
100
AcDbLine
 10
0.0865036010742188
 20
0.0770973510742188
 30
0.0
 11
0.0864285278320313
 21
0.0772723999023437
 31
0.0
  0
LINE
  5
14B
330
92
100
AcDbEntity
  8
STANDARD
  6
AUSGEZOGEN
 62
     7
440
 33554687
370
    13
100
AcDbLine
 10
0.0864285278320313
 20
0.0772723999023437
 30
0.0
 11
0.0862286376953125
 21
0.07729736328125
 31
0.0
  0
LINE
  5
14C
330
92
100
AcDbEntity
  8
STANDARD
  6
AUSGEZOGEN
 62
     7
440
 33554687
370
    13
100
AcDbLine
 10
0.0862286376953125
 20
0.07729736328125
 30
0.0
 11
0.0861035766601563
 21
0.0771473388671875
 31
0.0
  0
LINE
  5
14D
330
92
100
AcDbEntity
  8
STANDARD
  6
AUSGEZOGEN
 62
     7
440
 33554687
370
    13
100
AcDbLine
 10
0.0861035766601563
 20
0.0771473388671875
 30
0.0
 11
0.0861786499023438
 21
0.076972412109375
 31
0.0
  0
LINE
  5
14E
330
92
100
AcDbEntity
  8
STANDARD
  6
AUSGEZOGEN
 62
     7
440
 33554687
370
    13
100
AcDbLine
 10
0.1111786499023437
 20
0.076972412109375
 30
0.0
 11
0.1113535766601563
 21
0.0769474487304688
 31
0.0
  0
LINE
  5
14F
330
92
100
AcDbEntity
  8
STANDARD
  6
AUSGEZOGEN
 62
     7
440
 33554687
370
    13
100
AcDbLine
 10
0.1113535766601563
 20
0.0769474487304688
 30
0.0
 11
0.1115036010742188
 21
0.0770973510742188
 31
0.0
  0
LINE
  5
150
330
92
100
AcDbEntity
  8
STANDARD
  6
AUSGEZOGEN
 62
     7
440
 33554687
370
    13
100
AcDbLine
 10
0.1115036010742188
 20
0.0770973510742188
 30
0.0
 11
0.1114285278320312
 21
0.0772723999023437
 31
0.0
  0
LINE
  5
151
330
92
100
AcDbEntity
  8
STANDARD
  6
AUSGEZOGEN
 62
     7
440
 33554687
370
    13
100
AcDbLine
 10
0.1114285278320312
 20
0.0772723999023437
 30
0.0
 11
0.1112286376953125
 21
0.07729736328125
 31
0.0
  0
LINE
  5
152
330
92
100
AcDbEntity
  8
STANDARD
  6
AUSGEZOGEN
 62
     7
440
 33554687
370
    13
100
AcDbLine
 10
0.1112286376953125
 20
0.07729736328125
 30
0.0
 11
0.1111035766601563
 21
0.0771473388671875
 31
0.0
  0
LINE
  5
153
330
92
100
AcDbEntity
  8
STANDARD
  6
AUSGEZOGEN
 62
     7
440
 33554687
370
    13
100
AcDbLine
 10
0.1111035766601563
 20
0.0771473388671875
 30
0.0
 11
0.1111786499023437
 21
0.076972412109375
 31
0.0
  0
LINE
  5
154
330
92
100
AcDbEntity
  8
STANDARD
  6
AUSGEZOGEN
 62
     7
440
 33554687
370
    13
100
AcDbLine
 10
0.1361786499023437
 20
0.076972412109375
 30
0.0
 11
0.1363535766601562
 21
0.0769474487304688
 31
0.0
  0
LINE
  5
155
330
92
100
AcDbEntity
  8
STANDARD
  6
AUSGEZOGEN
 62
     7
440
 33554687
370
    13
100
AcDbLine
 10
0.1363535766601562
 20
0.0769474487304688
 30
0.0
 11
0.1365036010742187
 21
0.0770973510742188
 31
0.0
  0
LINE
  5
156
330
92
100
AcDbEntity
  8
STANDARD
  6
AUSGEZOGEN
 62
     7
440
 33554687
370
    13
100
AcDbLine
 10
0.1365036010742187
 20
0.0770973510742188
 30
0.0
 11
0.1364285278320312
 21
0.0772723999023437
 31
0.0
  0
LINE
  5
157
330
92
100
AcDbEntity
  8
STANDARD
  6
AUSGEZOGEN
 62
     7
440
 33554687
370
    13
100
AcDbLine
 10
0.1364285278320312
 20
0.0772723999023437
 30
0.0
 11
0.136228515625
 21
0.07729736328125
 31
0.0
  0
LINE
  5
158
330
92
100
AcDbEntity
  8
STANDARD
  6
AUSGEZOGEN
 62
     7
440
 33554687
370
    13
100
AcDbLine
 10
0.136228515625
 20
0.07729736328125
 30
0.0
 11
0.1361035766601562
 21
0.0771473388671875
 31
0.0
  0
LINE
  5
159
330
92
100
AcDbEntity
  8
STANDARD
  6
AUSGEZOGEN
 62
     7
440
 33554687
370
    13
100
AcDbLine
 10
0.1361035766601562
 20
0.0771473388671875
 30
0.0
 11
0.1361786499023437
 21
0.076972412109375
 31
0.0
  0
LINE
  5
15A
330
92
100
AcDbEntity
  8
STANDARD
  6
AUSGEZOGEN
 62
     7
440
 33554687
370
    13
100
AcDbLine
 10
0.1611786499023438
 20
0.076972412109375
 30
0.0
 11
0.1613535766601563
 21
0.0769474487304688
 31
0.0
  0
LINE
  5
15B
330
92
100
AcDbEntity
  8
STANDARD
  6
AUSGEZOGEN
 62
     7
440
 33554687
370
    13
100
AcDbLine
 10
0.1613535766601563
 20
0.0769474487304688
 30
0.0
 11
0.1615036010742188
 21
0.0770973510742188
 31
0.0
  0
LINE
  5
15C
330
92
100
AcDbEntity
  8
STANDARD
  6
AUSGEZOGEN
 62
     7
440
 33554687
370
    13
100
AcDbLine
 10
0.1615036010742188
 20
0.0770973510742188
 30
0.0
 11
0.1614285888671875
 21
0.0772723999023437
 31
0.0
  0
LINE
  5
15D
330
92
100
AcDbEntity
  8
STANDARD
  6
AUSGEZOGEN
 62
     7
440
 33554687
370
    13
100
AcDbLine
 10
0.1614285888671875
 20
0.0772723999023437
 30
0.0
 11
0.161228515625
 21
0.07729736328125
 31
0.0
  0
LINE
  5
15E
330
92
100
AcDbEntity
  8
STANDARD
  6
AUSGEZOGEN
 62
     7
440
 33554687
370
    13
100
AcDbLine
 10
0.161228515625
 20
0.07729736328125
 30
0.0
 11
0.1611035766601563
 21
0.0771473388671875
 31
0.0
  0
LINE
  5
15F
330
92
100
AcDbEntity
  8
STANDARD
  6
AUSGEZOGEN
 62
     7
440
 33554687
370
    13
100
AcDbLine
 10
0.1611035766601563
 20
0.0771473388671875
 30
0.0
 11
0.1611786499023438
 21
0.076972412109375
 31
0.0
  0
LINE
  5
160
330
92
100
AcDbEntity
  8
STANDARD
  6
AUSGEZOGEN
 62
     7
440
 33554687
370
    13
100
AcDbLine
 10
0.1861786499023438
 20
0.076972412109375
 30
0.0
 11
0.1863535766601563
 21
0.0769474487304688
 31
0.0
  0
LINE
  5
161
330
92
100
AcDbEntity
  8
STANDARD
  6
AUSGEZOGEN
 62
     7
440
 33554687
370
    13
100
AcDbLine
 10
0.1863535766601563
 20
0.0769474487304688
 30
0.0
 11
0.1865036010742188
 21
0.0770973510742188
 31
0.0
  0
LINE
  5
162
330
92
100
AcDbEntity
  8
STANDARD
  6
AUSGEZOGEN
 62
     7
440
 33554687
370
    13
100
AcDbLine
 10
0.1865036010742188
 20
0.0770973510742188
 30
0.0
 11
0.1864285888671875
 21
0.0772723999023437
 31
0.0
  0
LINE
  5
163
330
92
100
AcDbEntity
  8
STANDARD
  6
AUSGEZOGEN
 62
     7
440
 33554687
370
    13
100
AcDbLine
 10
0.1864285888671875
 20
0.0772723999023437
 30
0.0
 11
0.186228515625
 21
0.07729736328125
 31
0.0
  0
LINE
  5
164
330
92
100
AcDbEntity
  8
STANDARD
  6
AUSGEZOGEN
 62
     7
440
 33554687
370
    13
100
AcDbLine
 10
0.186228515625
 20
0.07729736328125
 30
0.0
 11
0.1861035766601563
 21
0.0771473388671875
 31
0.0
  0
LINE
  5
165
330
92
100
AcDbEntity
  8
STANDARD
  6
AUSGEZOGEN
 62
     7
440
 33554687
370
    13
100
AcDbLine
 10
0.1861035766601563
 20
0.0771473388671875
 30
0.0
 11
0.1861786499023438
 21
0.076972412109375
 31
0.0
  0
LINE
  5
166
330
92
100
AcDbEntity
  8
STANDARD
  6
AUSGEZOGEN
 62
     7
440
 33554687
370
    13
100
AcDbLine
 10
0.0642035522460938
 20
0.0796973876953125
 30
0.0
 11
0.0643785400390625
 21
0.0796473999023437
 31
0.0
  0
LINE
  5
167
330
92
100
AcDbEntity
  8
STANDARD
  6
AUSGEZOGEN
 62
     7
440
 33554687
370
    13
100
AcDbLine
 10
0.0643785400390625
 20
0.0796473999023437
 30
0.0
 11
0.064528564453125
 21
0.0797974243164063
 31
0.0
  0
LINE
  5
168
330
92
100
AcDbEntity
  8
STANDARD
  6
AUSGEZOGEN
 62
     7
440
 33554687
370
    13
100
AcDbLine
 10
0.064528564453125
 20
0.0797974243164063
 30
0.0
 11
0.0644649348650395
 21
0.0799672241210937
 31
0.0
  0
LINE
  5
169
330
92
100
AcDbEntity
  8
STANDARD
  6
AUSGEZOGEN
 62
     7
440
 33554687
370
    13
100
AcDbLine
 10
0.0642076287389869
 20
0.0799672241210937
 30
0.0
 11
0.0641286010742187
 21
0.0798723754882813
 31
0.0
  0
LINE
  5
16A
330
92
100
AcDbEntity
  8
STANDARD
  6
AUSGEZOGEN
 62
     7
440
 33554687
370
    13
100
AcDbLine
 10
0.0641286010742187
 20
0.0798723754882813
 30
0.0
 11
0.0642035522460938
 21
0.0796973876953125
 31
0.0
  0
LINE
  5
16B
330
92
100
AcDbEntity
  8
STANDARD
  6
AUSGEZOGEN
 62
     7
440
 33554687
370
    13
100
AcDbLine
 10
0.0892035522460937
 20
0.0796973876953125
 30
0.0
 11
0.0893785400390625
 21
0.0796473999023437
 31
0.0
  0
LINE
  5
16C
330
92
100
AcDbEntity
  8
STANDARD
  6
AUSGEZOGEN
 62
     7
440
 33554687
370
    13
100
AcDbLine
 10
0.0893785400390625
 20
0.0796473999023437
 30
0.0
 11
0.089528564453125
 21
0.0797974243164063
 31
0.0
  0
LINE
  5
16D
330
92
100
AcDbEntity
  8
STANDARD
  6
AUSGEZOGEN
 62
     7
440
 33554687
370
    13
100
AcDbLine
 10
0.089528564453125
 20
0.0797974243164063
 30
0.0
 11
0.0894649348650395
 21
0.0799672241210937
 31
0.0
  0
LINE
  5
16E
330
92
100
AcDbEntity
  8
STANDARD
  6
AUSGEZOGEN
 62
     7
440
 33554687
370
    13
100
AcDbLine
 10
0.0892076287389869
 20
0.0799672241210937
 30
0.0
 11
0.0891286010742188
 21
0.0798723754882813
 31
0.0
  0
LINE
  5
16F
330
92
100
AcDbEntity
  8
STANDARD
  6
AUSGEZOGEN
 62
     7
440
 33554687
370
    13
100
AcDbLine
 10
0.0891286010742188
 20
0.0798723754882813
 30
0.0
 11
0.0892035522460937
 21
0.0796973876953125
 31
0.0
  0
LINE
  5
170
330
92
100
AcDbEntity
  8
STANDARD
  6
AUSGEZOGEN
 62
     7
440
 33554687
370
    13
100
AcDbLine
 10
0.1142035522460938
 20
0.0796973876953125
 30
0.0
 11
0.1143785400390625
 21
0.0796473999023437
 31
0.0
  0
LINE
  5
171
330
92
100
AcDbEntity
  8
STANDARD
  6
AUSGEZOGEN
 62
     7
440
 33554687
370
    13
100
AcDbLine
 10
0.1143785400390625
 20
0.0796473999023437
 30
0.0
 11
0.114528564453125
 21
0.0797974243164063
 31
0.0
  0
LINE
  5
172
330
92
100
AcDbEntity
  8
STANDARD
  6
AUSGEZOGEN
 62
     7
440
 33554687
370
    13
100
AcDbLine
 10
0.114528564453125
 20
0.0797974243164063
 30
0.0
 11
0.1144649348650395
 21
0.0799672241210937
 31
0.0
  0
LINE
  5
173
330
92
100
AcDbEntity
  8
STANDARD
  6
AUSGEZOGEN
 62
     7
440
 33554687
370
    13
100
AcDbLine
 10
0.1142076287389869
 20
0.0799672241210937
 30
0.0
 11
0.1141286010742188
 21
0.0798723754882813
 31
0.0
  0
LINE
  5
174
330
92
100
AcDbEntity
  8
STANDARD
  6
AUSGEZOGEN
 62
     7
440
 33554687
370
    13
100
AcDbLine
 10
0.1141286010742188
 20
0.0798723754882813
 30
0.0
 11
0.1142035522460938
 21
0.0796973876953125
 31
0.0
  0
LINE
  5
175
330
92
100
AcDbEntity
  8
STANDARD
  6
AUSGEZOGEN
 62
     7
440
 33554687
370
    13
100
AcDbLine
 10
0.1392035522460938
 20
0.0796973876953125
 30
0.0
 11
0.1393785400390625
 21
0.0796473999023437
 31
0.0
  0
LINE
  5
176
330
92
100
AcDbEntity
  8
STANDARD
  6
AUSGEZOGEN
 62
     7
440
 33554687
370
    13
100
AcDbLine
 10
0.1393785400390625
 20
0.0796473999023437
 30
0.0
 11
0.139528564453125
 21
0.0797974243164063
 31
0.0
  0
LINE
  5
177
330
92
100
AcDbEntity
  8
STANDARD
  6
AUSGEZOGEN
 62
     7
440
 33554687
370
    13
100
AcDbLine
 10
0.139528564453125
 20
0.0797974243164063
 30
0.0
 11
0.1394649348650395
 21
0.0799672241210937
 31
0.0
  0
LINE
  5
178
330
92
100
AcDbEntity
  8
STANDARD
  6
AUSGEZOGEN
 62
     7
440
 33554687
370
    13
100
AcDbLine
 10
0.1392076287389868
 20
0.0799672241210937
 30
0.0
 11
0.1391286010742188
 21
0.0798723754882813
 31
0.0
  0
LINE
  5
179
330
92
100
AcDbEntity
  8
STANDARD
  6
AUSGEZOGEN
 62
     7
440
 33554687
370
    13
100
AcDbLine
 10
0.1391286010742188
 20
0.0798723754882813
 30
0.0
 11
0.1392035522460938
 21
0.0796973876953125
 31
0.0
  0
LINE
  5
17A
330
92
100
AcDbEntity
  8
STANDARD
  6
AUSGEZOGEN
 62
     7
440
 33554687
370
    13
100
AcDbLine
 10
0.16420361328125
 20
0.0796973876953125
 30
0.0
 11
0.1643785400390625
 21
0.0796473999023437
 31
0.0
  0
LINE
  5
17B
330
92
100
AcDbEntity
  8
STANDARD
  6
AUSGEZOGEN
 62
     7
440
 33554687
370
    13
100
AcDbLine
 10
0.1643785400390625
 20
0.0796473999023437
 30
0.0
 11
0.164528564453125
 21
0.0797974243164063
 31
0.0
  0
LINE
  5
17C
330
92
100
AcDbEntity
  8
STANDARD
  6
AUSGEZOGEN
 62
     7
440
 33554687
370
    13
100
AcDbLine
 10
0.164528564453125
 20
0.0797974243164063
 30
0.0
 11
0.1644649348650395
 21
0.0799672241210937
 31
0.0
  0
LINE
  5
17D
330
92
100
AcDbEntity
  8
STANDARD
  6
AUSGEZOGEN
 62
     7
440
 33554687
370
    13
100
AcDbLine
 10
0.1642076287389868
 20
0.0799672241210937
 30
0.0
 11
0.1641286010742188
 21
0.0798723754882813
 31
0.0
  0
LINE
  5
17E
330
92
100
AcDbEntity
  8
STANDARD
  6
AUSGEZOGEN
 62
     7
440
 33554687
370
    13
100
AcDbLine
 10
0.1641286010742188
 20
0.0798723754882813
 30
0.0
 11
0.16420361328125
 21
0.0796973876953125
 31
0.0
  0
LINE
  5
17F
330
92
100
AcDbEntity
  8
STANDARD
  6
AUSGEZOGEN
 62
     7
440
 33554687
370
    13
100
AcDbLine
 10
0.071778564453125
 20
0.0743473510742187
 30
0.0
 11
0.0719785766601563
 21
0.0743223876953125
 31
0.0
  0
LINE
  5
180
330
92
100
AcDbEntity
  8
STANDARD
  6
AUSGEZOGEN
 62
     7
440
 33554687
370
    13
100
AcDbLine
 10
0.0719785766601563
 20
0.0743223876953125
 30
0.0
 11
0.0721035766601563
 21
0.074472412109375
 31
0.0
  0
LINE
  5
181
330
92
100
AcDbEntity
  8
STANDARD
  6
AUSGEZOGEN
 62
     7
440
 33554687
370
    13
100
AcDbLine
 10
0.0721035766601563
 20
0.074472412109375
 30
0.0
 11
0.0720286254882812
 21
0.0746473999023438
 31
0.0
  0
LINE
  5
182
330
92
100
AcDbEntity
  8
STANDARD
  6
AUSGEZOGEN
 62
     7
440
 33554687
370
    13
100
AcDbLine
 10
0.0720286254882812
 20
0.0746473999023438
 30
0.0
 11
0.07182861328125
 21
0.07467236328125
 31
0.0
  0
LINE
  5
183
330
92
100
AcDbEntity
  8
STANDARD
  6
AUSGEZOGEN
 62
     7
440
 33554687
370
    13
100
AcDbLine
 10
0.07182861328125
 20
0.07467236328125
 30
0.0
 11
0.07170361328125
 21
0.0745224609375
 31
0.0
  0
LINE
  5
184
330
92
100
AcDbEntity
  8
STANDARD
  6
AUSGEZOGEN
 62
     7
440
 33554687
370
    13
100
AcDbLine
 10
0.07170361328125
 20
0.0745224609375
 30
0.0
 11
0.071778564453125
 21
0.0743473510742187
 31
0.0
  0
LINE
  5
185
330
92
100
AcDbEntity
  8
STANDARD
  6
AUSGEZOGEN
 62
     7
440
 33554687
370
    13
100
AcDbLine
 10
0.096778564453125
 20
0.0743473510742187
 30
0.0
 11
0.0969785766601562
 21
0.0743223876953125
 31
0.0
  0
LINE
  5
186
330
92
100
AcDbEntity
  8
STANDARD
  6
AUSGEZOGEN
 62
     7
440
 33554687
370
    13
100
AcDbLine
 10
0.0969785766601562
 20
0.0743223876953125
 30
0.0
 11
0.0971035766601562
 21
0.074472412109375
 31
0.0
  0
LINE
  5
187
330
92
100
AcDbEntity
  8
STANDARD
  6
AUSGEZOGEN
 62
     7
440
 33554687
370
    13
100
AcDbLine
 10
0.0971035766601562
 20
0.074472412109375
 30
0.0
 11
0.0970286254882813
 21
0.0746473999023438
 31
0.0
  0
LINE
  5
188
330
92
100
AcDbEntity
  8
STANDARD
  6
AUSGEZOGEN
 62
     7
440
 33554687
370
    13
100
AcDbLine
 10
0.0970286254882813
 20
0.0746473999023438
 30
0.0
 11
0.09682861328125
 21
0.07467236328125
 31
0.0
  0
LINE
  5
189
330
92
100
AcDbEntity
  8
STANDARD
  6
AUSGEZOGEN
 62
     7
440
 33554687
370
    13
100
AcDbLine
 10
0.09682861328125
 20
0.07467236328125
 30
0.0
 11
0.09670361328125
 21
0.0745224609375
 31
0.0
  0
LINE
  5
18A
330
92
100
AcDbEntity
  8
STANDARD
  6
AUSGEZOGEN
 62
     7
440
 33554687
370
    13
100
AcDbLine
 10
0.09670361328125
 20
0.0745224609375
 30
0.0
 11
0.096778564453125
 21
0.0743473510742187
 31
0.0
  0
LINE
  5
18B
330
92
100
AcDbEntity
  8
STANDARD
  6
AUSGEZOGEN
 62
     7
440
 33554687
370
    13
100
AcDbLine
 10
0.121778564453125
 20
0.0743473510742187
 30
0.0
 11
0.1219785766601563
 21
0.0743223876953125
 31
0.0
  0
LINE
  5
18C
330
92
100
AcDbEntity
  8
STANDARD
  6
AUSGEZOGEN
 62
     7
440
 33554687
370
    13
100
AcDbLine
 10
0.1219785766601563
 20
0.0743223876953125
 30
0.0
 11
0.1221035766601563
 21
0.074472412109375
 31
0.0
  0
LINE
  5
18D
330
92
100
AcDbEntity
  8
STANDARD
  6
AUSGEZOGEN
 62
     7
440
 33554687
370
    13
100
AcDbLine
 10
0.1221035766601563
 20
0.074472412109375
 30
0.0
 11
0.1220286254882813
 21
0.0746473999023438
 31
0.0
  0
LINE
  5
18E
330
92
100
AcDbEntity
  8
STANDARD
  6
AUSGEZOGEN
 62
     7
440
 33554687
370
    13
100
AcDbLine
 10
0.1220286254882813
 20
0.0746473999023438
 30
0.0
 11
0.12182861328125
 21
0.07467236328125
 31
0.0
  0
LINE
  5
18F
330
92
100
AcDbEntity
  8
STANDARD
  6
AUSGEZOGEN
 62
     7
440
 33554687
370
    13
100
AcDbLine
 10
0.12182861328125
 20
0.07467236328125
 30
0.0
 11
0.12170361328125
 21
0.0745224609375
 31
0.0
  0
LINE
  5
190
330
92
100
AcDbEntity
  8
STANDARD
  6
AUSGEZOGEN
 62
     7
440
 33554687
370
    13
100
AcDbLine
 10
0.12170361328125
 20
0.0745224609375
 30
0.0
 11
0.121778564453125
 21
0.0743473510742187
 31
0.0
  0
LINE
  5
191
330
92
100
AcDbEntity
  8
STANDARD
  6
AUSGEZOGEN
 62
     7
440
 33554687
370
    13
100
AcDbLine
 10
0.146778564453125
 20
0.0743473510742187
 30
0.0
 11
0.1469785766601563
 21
0.0743223876953125
 31
0.0
  0
LINE
  5
192
330
92
100
AcDbEntity
  8
STANDARD
  6
AUSGEZOGEN
 62
     7
440
 33554687
370
    13
100
AcDbLine
 10
0.1469785766601563
 20
0.0743223876953125
 30
0.0
 11
0.1471035766601562
 21
0.074472412109375
 31
0.0
  0
LINE
  5
193
330
92
100
AcDbEntity
  8
STANDARD
  6
AUSGEZOGEN
 62
     7
440
 33554687
370
    13
100
AcDbLine
 10
0.1471035766601562
 20
0.074472412109375
 30
0.0
 11
0.1470286254882812
 21
0.0746473999023438
 31
0.0
  0
LINE
  5
194
330
92
100
AcDbEntity
  8
STANDARD
  6
AUSGEZOGEN
 62
     7
440
 33554687
370
    13
100
AcDbLine
 10
0.1470286254882812
 20
0.0746473999023438
 30
0.0
 11
0.14682861328125
 21
0.07467236328125
 31
0.0
  0
LINE
  5
195
330
92
100
AcDbEntity
  8
STANDARD
  6
AUSGEZOGEN
 62
     7
440
 33554687
370
    13
100
AcDbLine
 10
0.14682861328125
 20
0.07467236328125
 30
0.0
 11
0.14670361328125
 21
0.0745224609375
 31
0.0
  0
LINE
  5
196
330
92
100
AcDbEntity
  8
STANDARD
  6
AUSGEZOGEN
 62
     7
440
 33554687
370
    13
100
AcDbLine
 10
0.14670361328125
 20
0.0745224609375
 30
0.0
 11
0.146778564453125
 21
0.0743473510742187
 31
0.0
  0
LINE
  5
197
330
92
100
AcDbEntity
  8
STANDARD
  6
AUSGEZOGEN
 62
     7
440
 33554687
370
    13
100
AcDbLine
 10
0.171778564453125
 20
0.0743473510742187
 30
0.0
 11
0.1719786376953125
 21
0.0743223876953125
 31
0.0
  0
LINE
  5
198
330
92
100
AcDbEntity
  8
STANDARD
  6
AUSGEZOGEN
 62
     7
440
 33554687
370
    13
100
AcDbLine
 10
0.1719786376953125
 20
0.0743223876953125
 30
0.0
 11
0.1721035766601562
 21
0.074472412109375
 31
0.0
  0
LINE
  5
199
330
92
100
AcDbEntity
  8
STANDARD
  6
AUSGEZOGEN
 62
     7
440
 33554687
370
    13
100
AcDbLine
 10
0.1721035766601562
 20
0.074472412109375
 30
0.0
 11
0.1720286254882813
 21
0.0746473999023438
 31
0.0
  0
LINE
  5
19A
330
92
100
AcDbEntity
  8
STANDARD
  6
AUSGEZOGEN
 62
     7
440
 33554687
370
    13
100
AcDbLine
 10
0.1720286254882813
 20
0.0746473999023438
 30
0.0
 11
0.17182861328125
 21
0.07467236328125
 31
0.0
  0
LINE
  5
19B
330
92
100
AcDbEntity
  8
STANDARD
  6
AUSGEZOGEN
 62
     7
440
 33554687
370
    13
100
AcDbLine
 10
0.17182861328125
 20
0.07467236328125
 30
0.0
 11
0.1717035522460938
 21
0.0745224609375
 31
0.0
  0
LINE
  5
19C
330
92
100
AcDbEntity
  8
STANDARD
  6
AUSGEZOGEN
 62
     7
440
 33554687
370
    13
100
AcDbLine
 10
0.1717035522460938
 20
0.0745224609375
 30
0.0
 11
0.171778564453125
 21
0.0743473510742187
 31
0.0
  0
LINE
  5
19D
330
92
100
AcDbEntity
  8
STANDARD
  6
AUSGEZOGEN
 62
     7
440
 33554687
370
    13
100
AcDbLine
 10
0.0545785522460938
 20
0.0758223876953125
 30
0.0
 11
0.0547536010742187
 21
0.0757723388671875
 31
0.0
  0
LINE
  5
19E
330
92
100
AcDbEntity
  8
STANDARD
  6
AUSGEZOGEN
 62
     7
440
 33554687
370
    13
100
AcDbLine
 10
0.0547536010742187
 20
0.0757723388671875
 30
0.0
 11
0.054903564453125
 21
0.07592236328125
 31
0.0
  0
LINE
  5
19F
330
92
100
AcDbEntity
  8
STANDARD
  6
AUSGEZOGEN
 62
     7
440
 33554687
370
    13
100
AcDbLine
 10
0.054903564453125
 20
0.07592236328125
 30
0.0
 11
0.05482861328125
 21
0.0760973510742187
 31
0.0
  0
LINE
  5
1A0
330
92
100
AcDbEntity
  8
STANDARD
  6
AUSGEZOGEN
 62
     7
440
 33554687
370
    13
100
AcDbLine
 10
0.05482861328125
 20
0.0760973510742187
 30
0.0
 11
0.0546285400390625
 21
0.0761473388671875
 31
0.0
  0
LINE
  5
1A1
330
92
100
AcDbEntity
  8
STANDARD
  6
AUSGEZOGEN
 62
     7
440
 33554687
370
    13
100
AcDbLine
 10
0.0546285400390625
 20
0.0761473388671875
 30
0.0
 11
0.0545036010742187
 21
0.0759974365234375
 31
0.0
  0
LINE
  5
1A2
330
92
100
AcDbEntity
  8
STANDARD
  6
AUSGEZOGEN
 62
     7
440
 33554687
370
    13
100
AcDbLine
 10
0.0545036010742187
 20
0.0759974365234375
 30
0.0
 11
0.0545785522460938
 21
0.0758223876953125
 31
0.0
  0
LINE
  5
1A3
330
92
100
AcDbEntity
  8
STANDARD
  6
AUSGEZOGEN
 62
     7
440
 33554687
370
    13
100
AcDbLine
 10
0.0795785522460938
 20
0.0758223876953125
 30
0.0
 11
0.0797536010742187
 21
0.0757723388671875
 31
0.0
  0
LINE
  5
1A4
330
92
100
AcDbEntity
  8
STANDARD
  6
AUSGEZOGEN
 62
     7
440
 33554687
370
    13
100
AcDbLine
 10
0.0797536010742187
 20
0.0757723388671875
 30
0.0
 11
0.079903564453125
 21
0.07592236328125
 31
0.0
  0
LINE
  5
1A5
330
92
100
AcDbEntity
  8
STANDARD
  6
AUSGEZOGEN
 62
     7
440
 33554687
370
    13
100
AcDbLine
 10
0.079903564453125
 20
0.07592236328125
 30
0.0
 11
0.07982861328125
 21
0.0760973510742187
 31
0.0
  0
LINE
  5
1A6
330
92
100
AcDbEntity
  8
STANDARD
  6
AUSGEZOGEN
 62
     7
440
 33554687
370
    13
100
AcDbLine
 10
0.07982861328125
 20
0.0760973510742187
 30
0.0
 11
0.0796285400390625
 21
0.0761473388671875
 31
0.0
  0
LINE
  5
1A7
330
92
100
AcDbEntity
  8
STANDARD
  6
AUSGEZOGEN
 62
     7
440
 33554687
370
    13
100
AcDbLine
 10
0.0796285400390625
 20
0.0761473388671875
 30
0.0
 11
0.0795036010742187
 21
0.0759974365234375
 31
0.0
  0
LINE
  5
1A8
330
92
100
AcDbEntity
  8
STANDARD
  6
AUSGEZOGEN
 62
     7
440
 33554687
370
    13
100
AcDbLine
 10
0.0795036010742187
 20
0.0759974365234375
 30
0.0
 11
0.0795785522460938
 21
0.0758223876953125
 31
0.0
  0
LINE
  5
1A9
330
92
100
AcDbEntity
  8
STANDARD
  6
AUSGEZOGEN
 62
     7
440
 33554687
370
    13
100
AcDbLine
 10
0.1045785522460937
 20
0.0758223876953125
 30
0.0
 11
0.1047535400390625
 21
0.0757723388671875
 31
0.0
  0
LINE
  5
1AA
330
92
100
AcDbEntity
  8
STANDARD
  6
AUSGEZOGEN
 62
     7
440
 33554687
370
    13
100
AcDbLine
 10
0.1047535400390625
 20
0.0757723388671875
 30
0.0
 11
0.104903564453125
 21
0.07592236328125
 31
0.0
  0
LINE
  5
1AB
330
92
100
AcDbEntity
  8
STANDARD
  6
AUSGEZOGEN
 62
     7
440
 33554687
370
    13
100
AcDbLine
 10
0.104903564453125
 20
0.07592236328125
 30
0.0
 11
0.10482861328125
 21
0.0760973510742187
 31
0.0
  0
LINE
  5
1AC
330
92
100
AcDbEntity
  8
STANDARD
  6
AUSGEZOGEN
 62
     7
440
 33554687
370
    13
100
AcDbLine
 10
0.10482861328125
 20
0.0760973510742187
 30
0.0
 11
0.1046286010742188
 21
0.0761473388671875
 31
0.0
  0
LINE
  5
1AD
330
92
100
AcDbEntity
  8
STANDARD
  6
AUSGEZOGEN
 62
     7
440
 33554687
370
    13
100
AcDbLine
 10
0.1046286010742188
 20
0.0761473388671875
 30
0.0
 11
0.1045036010742188
 21
0.0759974365234375
 31
0.0
  0
LINE
  5
1AE
330
92
100
AcDbEntity
  8
STANDARD
  6
AUSGEZOGEN
 62
     7
440
 33554687
370
    13
100
AcDbLine
 10
0.1045036010742188
 20
0.0759974365234375
 30
0.0
 11
0.1045785522460937
 21
0.0758223876953125
 31
0.0
  0
LINE
  5
1AF
330
92
100
AcDbEntity
  8
STANDARD
  6
AUSGEZOGEN
 62
     7
440
 33554687
370
    13
100
AcDbLine
 10
0.1295785522460937
 20
0.0758223876953125
 30
0.0
 11
0.1297535400390625
 21
0.0757723388671875
 31
0.0
  0
LINE
  5
1B0
330
92
100
AcDbEntity
  8
STANDARD
  6
AUSGEZOGEN
 62
     7
440
 33554687
370
    13
100
AcDbLine
 10
0.1297535400390625
 20
0.0757723388671875
 30
0.0
 11
0.129903564453125
 21
0.07592236328125
 31
0.0
  0
LINE
  5
1B1
330
92
100
AcDbEntity
  8
STANDARD
  6
AUSGEZOGEN
 62
     7
440
 33554687
370
    13
100
AcDbLine
 10
0.129903564453125
 20
0.07592236328125
 30
0.0
 11
0.12982861328125
 21
0.0760973510742187
 31
0.0
  0
LINE
  5
1B2
330
92
100
AcDbEntity
  8
STANDARD
  6
AUSGEZOGEN
 62
     7
440
 33554687
370
    13
100
AcDbLine
 10
0.12982861328125
 20
0.0760973510742187
 30
0.0
 11
0.1296286010742188
 21
0.0761473388671875
 31
0.0
  0
LINE
  5
1B3
330
92
100
AcDbEntity
  8
STANDARD
  6
AUSGEZOGEN
 62
     7
440
 33554687
370
    13
100
AcDbLine
 10
0.1296286010742188
 20
0.0761473388671875
 30
0.0
 11
0.1295036010742188
 21
0.0759974365234375
 31
0.0
  0
LINE
  5
1B4
330
92
100
AcDbEntity
  8
STANDARD
  6
AUSGEZOGEN
 62
     7
440
 33554687
370
    13
100
AcDbLine
 10
0.1295036010742188
 20
0.0759974365234375
 30
0.0
 11
0.1295785522460937
 21
0.0758223876953125
 31
0.0
  0
LINE
  5
1B5
330
92
100
AcDbEntity
  8
STANDARD
  6
AUSGEZOGEN
 62
     7
440
 33554687
370
    13
100
AcDbLine
 10
0.1545785522460938
 20
0.0758223876953125
 30
0.0
 11
0.1547535400390625
 21
0.0757723388671875
 31
0.0
  0
LINE
  5
1B6
330
92
100
AcDbEntity
  8
STANDARD
  6
AUSGEZOGEN
 62
     7
440
 33554687
370
    13
100
AcDbLine
 10
0.1547535400390625
 20
0.0757723388671875
 30
0.0
 11
0.154903564453125
 21
0.07592236328125
 31
0.0
  0
LINE
  5
1B7
330
92
100
AcDbEntity
  8
STANDARD
  6
AUSGEZOGEN
 62
     7
440
 33554687
370
    13
100
AcDbLine
 10
0.154903564453125
 20
0.07592236328125
 30
0.0
 11
0.15482861328125
 21
0.0760973510742187
 31
0.0
  0
LINE
  5
1B8
330
92
100
AcDbEntity
  8
STANDARD
  6
AUSGEZOGEN
 62
     7
440
 33554687
370
    13
100
AcDbLine
 10
0.15482861328125
 20
0.0760973510742187
 30
0.0
 11
0.1546286010742187
 21
0.0761473388671875
 31
0.0
  0
LINE
  5
1B9
330
92
100
AcDbEntity
  8
STANDARD
  6
AUSGEZOGEN
 62
     7
440
 33554687
370
    13
100
AcDbLine
 10
0.1546286010742187
 20
0.0761473388671875
 30
0.0
 11
0.1545036010742188
 21
0.0759974365234375
 31
0.0
  0
LINE
  5
1BA
330
92
100
AcDbEntity
  8
STANDARD
  6
AUSGEZOGEN
 62
     7
440
 33554687
370
    13
100
AcDbLine
 10
0.1545036010742188
 20
0.0759974365234375
 30
0.0
 11
0.1545785522460938
 21
0.0758223876953125
 31
0.0
  0
LINE
  5
1BB
330
92
100
AcDbEntity
  8
STANDARD
  6
AUSGEZOGEN
 62
     7
440
 33554687
370
    13
100
AcDbLine
 10
0.1795785522460938
 20
0.0758223876953125
 30
0.0
 11
0.1797535400390625
 21
0.0757723388671875
 31
0.0
  0
LINE
  5
1BC
330
92
100
AcDbEntity
  8
STANDARD
  6
AUSGEZOGEN
 62
     7
440
 33554687
370
    13
100
AcDbLine
 10
0.1797535400390625
 20
0.0757723388671875
 30
0.0
 11
0.179903564453125
 21
0.07592236328125
 31
0.0
  0
LINE
  5
1BD
330
92
100
AcDbEntity
  8
STANDARD
  6
AUSGEZOGEN
 62
     7
440
 33554687
370
    13
100
AcDbLine
 10
0.179903564453125
 20
0.07592236328125
 30
0.0
 11
0.17982861328125
 21
0.0760973510742187
 31
0.0
  0
LINE
  5
1BE
330
92
100
AcDbEntity
  8
STANDARD
  6
AUSGEZOGEN
 62
     7
440
 33554687
370
    13
100
AcDbLine
 10
0.17982861328125
 20
0.0760973510742187
 30
0.0
 11
0.1796286010742187
 21
0.0761473388671875
 31
0.0
  0
LINE
  5
1BF
330
92
100
AcDbEntity
  8
STANDARD
  6
AUSGEZOGEN
 62
     7
440
 33554687
370
    13
100
AcDbLine
 10
0.1796286010742187
 20
0.0761473388671875
 30
0.0
 11
0.1795036010742188
 21
0.0759974365234375
 31
0.0
  0
LINE
  5
1C0
330
92
100
AcDbEntity
  8
STANDARD
  6
AUSGEZOGEN
 62
     7
440
 33554687
370
    13
100
AcDbLine
 10
0.1795036010742188
 20
0.0759974365234375
 30
0.0
 11
0.1795785522460938
 21
0.0758223876953125
 31
0.0
  0
LINE
  5
1C1
330
92
100
AcDbEntity
  8
STANDARD
  6
AUSGEZOGEN
 62
     7
440
 33554687
370
    13
100
AcDbLine
 10
0.0591785888671875
 20
0.0780973510742188
 30
0.0
 11
0.0591785888671875
 21
0.0780973510742188
 31
0.0
  0
LINE
  5
1C2
330
92
100
AcDbEntity
  8
STANDARD
  6
AUSGEZOGEN
 62
     7
440
 33554687
370
    13
100
AcDbLine
 10
0.0841786499023437
 20
0.0780973510742188
 30
0.0
 11
0.0841786499023437
 21
0.0780973510742188
 31
0.0
  0
LINE
  5
1C3
330
92
100
AcDbEntity
  8
STANDARD
  6
AUSGEZOGEN
 62
     7
440
 33554687
370
    13
100
AcDbLine
 10
0.1091786499023438
 20
0.0780973510742188
 30
0.0
 11
0.1091786499023438
 21
0.0780973510742188
 31
0.0
  0
LINE
  5
1C4
330
92
100
AcDbEntity
  8
STANDARD
  6
AUSGEZOGEN
 62
     7
440
 33554687
370
    13
100
AcDbLine
 10
0.1341786499023438
 20
0.0780973510742188
 30
0.0
 11
0.1341786499023438
 21
0.0780973510742188
 31
0.0
  0
LINE
  5
1C5
330
92
100
AcDbEntity
  8
STANDARD
  6
AUSGEZOGEN
 62
     7
440
 33554687
370
    13
100
AcDbLine
 10
0.1591786499023438
 20
0.0780973510742188
 30
0.0
 11
0.1591786499023438
 21
0.0780973510742188
 31
0.0
  0
LINE
  5
1C6
330
92
100
AcDbEntity
  8
STANDARD
  6
AUSGEZOGEN
 62
     7
440
 33554687
370
    13
100
AcDbLine
 10
0.1841786499023438
 20
0.0780973510742188
 30
0.0
 11
0.1841786499023438
 21
0.0780973510742188
 31
0.0
  0
LINE
  5
1C7
330
92
100
AcDbEntity
  8
STANDARD
  6
AUSGEZOGEN
 62
     7
440
 33554687
370
    13
100
AcDbLine
 10
0.0704285278320313
 20
0.0758223876953125
 30
0.0
 11
0.0704285278320313
 21
0.0758223876953125
 31
0.0
  0
LINE
  5
1C8
330
92
100
AcDbEntity
  8
STANDARD
  6
AUSGEZOGEN
 62
     7
440
 33554687
370
    13
100
AcDbLine
 10
0.0954285278320312
 20
0.0758223876953125
 30
0.0
 11
0.0954285278320312
 21
0.0758223876953125
 31
0.0
  0
LINE
  5
1C9
330
92
100
AcDbEntity
  8
STANDARD
  6
AUSGEZOGEN
 62
     7
440
 33554687
370
    13
100
AcDbLine
 10
0.1204285278320313
 20
0.0758223876953125
 30
0.0
 11
0.1204285278320313
 21
0.0758223876953125
 31
0.0
  0
LINE
  5
1CA
330
92
100
AcDbEntity
  8
STANDARD
  6
AUSGEZOGEN
 62
     7
440
 33554687
370
    13
100
AcDbLine
 10
0.1454285278320313
 20
0.0758223876953125
 30
0.0
 11
0.1454285278320313
 21
0.0758223876953125
 31
0.0
  0
LINE
  5
1CB
330
92
100
AcDbEntity
  8
STANDARD
  6
AUSGEZOGEN
 62
     7
440
 33554687
370
    13
100
AcDbLine
 10
0.1704285888671875
 20
0.0758223876953125
 30
0.0
 11
0.1704285888671875
 21
0.0758223876953125
 31
0.0
  0
LINE
  5
1CC
330
92
100
AcDbEntity
  8
STANDARD
  6
AUSGEZOGEN
 62
     7
440
 33554687
370
    13
100
AcDbLine
 10
0.0692536010742188
 20
0.0709974365234375
 30
0.0
 11
0.0692536010742188
 21
0.0709974365234375
 31
0.0
  0
LINE
  5
1CD
330
92
100
AcDbEntity
  8
STANDARD
  6
AUSGEZOGEN
 62
     7
440
 33554687
370
    13
100
AcDbLine
 10
0.0942536010742187
 20
0.0709974365234375
 30
0.0
 11
0.0942536010742187
 21
0.0709974365234375
 31
0.0
  0
LINE
  5
1CE
330
92
100
AcDbEntity
  8
STANDARD
  6
AUSGEZOGEN
 62
     7
440
 33554687
370
    13
100
AcDbLine
 10
0.1192536010742188
 20
0.0709974365234375
 30
0.0
 11
0.1192536010742188
 21
0.0709974365234375
 31
0.0
  0
LINE
  5
1CF
330
92
100
AcDbEntity
  8
STANDARD
  6
AUSGEZOGEN
 62
     7
440
 33554687
370
    13
100
AcDbLine
 10
0.1442536010742188
 20
0.0709974365234375
 30
0.0
 11
0.1442536010742188
 21
0.0709974365234375
 31
0.0
  0
LINE
  5
1D0
330
92
100
AcDbEntity
  8
STANDARD
  6
AUSGEZOGEN
 62
     7
440
 33554687
370
    13
100
AcDbLine
 10
0.1692536010742187
 20
0.0709974365234375
 30
0.0
 11
0.1692536010742187
 21
0.0709974365234375
 31
0.0
  0
LINE
  5
1D1
330
92
100
AcDbEntity
  8
STANDARD
  6
AUSGEZOGEN
 62
     7
440
 33554687
370
    13
100
AcDbLine
 10
0.049403564453125
 20
0.0694973754882812
 30
0.0
 11
0.049403564453125
 21
0.0694973754882812
 31
0.0
  0
LINE
  5
1D2
330
92
100
AcDbEntity
  8
STANDARD
  6
AUSGEZOGEN
 62
     7
440
 33554687
370
    13
100
AcDbLine
 10
0.074403564453125
 20
0.0694973754882812
 30
0.0
 11
0.074403564453125
 21
0.0694973754882812
 31
0.0
  0
LINE
  5
1D3
330
92
100
AcDbEntity
  8
STANDARD
  6
AUSGEZOGEN
 62
     7
440
 33554687
370
    13
100
AcDbLine
 10
0.0994036254882813
 20
0.0694973754882812
 30
0.0
 11
0.0994036254882813
 21
0.0694973754882812
 31
0.0
  0
LINE
  5
1D4
330
92
100
AcDbEntity
  8
STANDARD
  6
AUSGEZOGEN
 62
     7
440
 33554687
370
    13
100
AcDbLine
 10
0.1244036254882813
 20
0.0694973754882812
 30
0.0
 11
0.1244036254882813
 21
0.0694973754882812
 31
0.0
  0
LINE
  5
1D5
330
92
100
AcDbEntity
  8
STANDARD
  6
AUSGEZOGEN
 62
     7
440
 33554687
370
    13
100
AcDbLine
 10
0.1494036254882813
 20
0.0694973754882812
 30
0.0
 11
0.1494036254882813
 21
0.0694973754882812
 31
0.0
  0
LINE
  5
1D6
330
92
100
AcDbEntity
  8
STANDARD
  6
AUSGEZOGEN
 62
     7
440
 33554687
370
    13
100
AcDbLine
 10
0.1744036254882813
 20
0.0694973754882812
 30
0.0
 11
0.1744036254882813
 21
0.0694973754882812
 31
0.0
  0
LINE
  5
1D7
330
92
100
AcDbEntity
  8
STANDARD
  6
AUSGEZOGEN
 62
     7
440
 33554687
370
    13
100
AcDbLine
 10
0.053853515625
 20
0.0712473754882813
 30
0.0
 11
0.053853515625
 21
0.0712473754882813
 31
0.0
  0
LINE
  5
1D8
330
92
100
AcDbEntity
  8
STANDARD
  6
AUSGEZOGEN
 62
     7
440
 33554687
370
    13
100
AcDbLine
 10
0.078853515625
 20
0.0712473754882813
 30
0.0
 11
0.078853515625
 21
0.0712473754882813
 31
0.0
  0
LINE
  5
1D9
330
92
100
AcDbEntity
  8
STANDARD
  6
AUSGEZOGEN
 62
     7
440
 33554687
370
    13
100
AcDbLine
 10
0.1038535766601563
 20
0.0712473754882813
 30
0.0
 11
0.1038535766601563
 21
0.0712473754882813
 31
0.0
  0
LINE
  5
1DA
330
92
100
AcDbEntity
  8
STANDARD
  6
AUSGEZOGEN
 62
     7
440
 33554687
370
    13
100
AcDbLine
 10
0.1288535766601563
 20
0.0712473754882813
 30
0.0
 11
0.1288535766601563
 21
0.0712473754882813
 31
0.0
  0
LINE
  5
1DB
330
92
100
AcDbEntity
  8
STANDARD
  6
AUSGEZOGEN
 62
     7
440
 33554687
370
    13
100
AcDbLine
 10
0.1538535766601563
 20
0.0712473754882813
 30
0.0
 11
0.1538535766601563
 21
0.0712473754882813
 31
0.0
  0
LINE
  5
1DC
330
92
100
AcDbEntity
  8
STANDARD
  6
AUSGEZOGEN
 62
     7
440
 33554687
370
    13
100
AcDbLine
 10
0.1788535766601562
 20
0.0712473754882813
 30
0.0
 11
0.1788535766601562
 21
0.0712473754882813
 31
0.0
  0
LINE
  5
1DD
330
92
100
AcDbEntity
  8
STANDARD
  6
AUSGEZOGEN
 62
     7
440
 33554687
370
    13
100
AcDbLine
 10
0.0509785766601563
 20
0.0680223999023438
 30
0.0
 11
0.0509785766601563
 21
0.0680223999023438
 31
0.0
  0
LINE
  5
1DE
330
92
100
AcDbEntity
  8
STANDARD
  6
AUSGEZOGEN
 62
     7
440
 33554687
370
    13
100
AcDbLine
 10
0.0759785766601563
 20
0.0680223999023438
 30
0.0
 11
0.0759785766601563
 21
0.0680223999023438
 31
0.0
  0
LINE
  5
1DF
330
92
100
AcDbEntity
  8
STANDARD
  6
AUSGEZOGEN
 62
     7
440
 33554687
370
    13
100
AcDbLine
 10
0.1009785766601562
 20
0.0680223999023438
 30
0.0
 11
0.1009785766601562
 21
0.0680223999023438
 31
0.0
  0
LINE
  5
1E0
330
92
100
AcDbEntity
  8
STANDARD
  6
AUSGEZOGEN
 62
     7
440
 33554687
370
    13
100
AcDbLine
 10
0.1259785766601562
 20
0.0680223999023438
 30
0.0
 11
0.1259785766601562
 21
0.0680223999023438
 31
0.0
  0
LINE
  5
1E1
330
92
100
AcDbEntity
  8
STANDARD
  6
AUSGEZOGEN
 62
     7
440
 33554687
370
    13
100
AcDbLine
 10
0.1509786376953125
 20
0.0680223999023438
 30
0.0
 11
0.1509786376953125
 21
0.0680223999023438
 31
0.0
  0
LINE
  5
1E2
330
92
100
AcDbEntity
  8
STANDARD
  6
AUSGEZOGEN
 62
     7
440
 33554687
370
    13
100
AcDbLine
 10
0.1759786376953125
 20
0.0680223999023438
 30
0.0
 11
0.1759786376953125
 21
0.0680223999023438
 31
0.0
  0
LINE
  5
1E3
330
92
100
AcDbEntity
  8
STANDARD
  6
AUSGEZOGEN
 62
     7
440
 33554687
370
    13
100
AcDbLine
 10
0.06582861328125
 20
0.0676223754882812
 30
0.0
 11
0.06582861328125
 21
0.0676223754882812
 31
0.0
  0
LINE
  5
1E4
330
92
100
AcDbEntity
  8
STANDARD
  6
AUSGEZOGEN
 62
     7
440
 33554687
370
    13
100
AcDbLine
 10
0.09082861328125
 20
0.0676223754882812
 30
0.0
 11
0.09082861328125
 21
0.0676223754882812
 31
0.0
  0
LINE
  5
1E5
330
92
100
AcDbEntity
  8
STANDARD
  6
AUSGEZOGEN
 62
     7
440
 33554687
370
    13
100
AcDbLine
 10
0.11582861328125
 20
0.0676223754882812
 30
0.0
 11
0.11582861328125
 21
0.0676223754882812
 31
0.0
  0
LINE
  5
1E6
330
92
100
AcDbEntity
  8
STANDARD
  6
AUSGEZOGEN
 62
     7
440
 33554687
370
    13
100
AcDbLine
 10
0.14082861328125
 20
0.0676223754882812
 30
0.0
 11
0.14082861328125
 21
0.0676223754882812
 31
0.0
  0
LINE
  5
1E7
330
92
100
AcDbEntity
  8
STANDARD
  6
AUSGEZOGEN
 62
     7
440
 33554687
370
    13
100
AcDbLine
 10
0.16582861328125
 20
0.0676223754882812
 30
0.0
 11
0.16582861328125
 21
0.0676223754882812
 31
0.0
  0
LINE
  5
1E8
330
92
100
AcDbEntity
  8
STANDARD
  6
AUSGEZOGEN
 62
     7
440
 33554687
370
    13
100
AcDbLine
 10
0.0658035278320312
 20
0.0780973510742188
 30
0.0
 11
0.0658035278320312
 21
0.0780973510742188
 31
0.0
  0
LINE
  5
1E9
330
92
100
AcDbEntity
  8
STANDARD
  6
AUSGEZOGEN
 62
     7
440
 33554687
370
    13
100
AcDbLine
 10
0.0908035278320313
 20
0.0780973510742188
 30
0.0
 11
0.0908035278320313
 21
0.0780973510742188
 31
0.0
  0
LINE
  5
1EA
330
92
100
AcDbEntity
  8
STANDARD
  6
AUSGEZOGEN
 62
     7
440
 33554687
370
    13
100
AcDbLine
 10
0.1158035278320313
 20
0.0780973510742188
 30
0.0
 11
0.1158035278320313
 21
0.0780973510742188
 31
0.0
  0
LINE
  5
1EB
330
92
100
AcDbEntity
  8
STANDARD
  6
AUSGEZOGEN
 62
     7
440
 33554687
370
    13
100
AcDbLine
 10
0.1408035278320313
 20
0.0780973510742188
 30
0.0
 11
0.1408035278320313
 21
0.0780973510742188
 31
0.0
  0
LINE
  5
1EC
330
92
100
AcDbEntity
  8
STANDARD
  6
AUSGEZOGEN
 62
     7
440
 33554687
370
    13
100
AcDbLine
 10
0.1658035278320313
 20
0.0780973510742188
 30
0.0
 11
0.1658035278320313
 21
0.0780973510742188
 31
0.0
  0
LINE
  5
1ED
330
92
100
AcDbEntity
  8
STANDARD
  6
AUSGEZOGEN
 62
     7
440
 33554687
370
    13
100
AcDbLine
 10
0.0703535766601563
 20
0.0778223876953125
 30
0.0
 11
0.0703535766601563
 21
0.0778223876953125
 31
0.0
  0
LINE
  5
1EE
330
92
100
AcDbEntity
  8
STANDARD
  6
AUSGEZOGEN
 62
     7
440
 33554687
370
    13
100
AcDbLine
 10
0.0953535766601563
 20
0.0778223876953125
 30
0.0
 11
0.0953535766601563
 21
0.0778223876953125
 31
0.0
  0
LINE
  5
1EF
330
92
100
AcDbEntity
  8
STANDARD
  6
AUSGEZOGEN
 62
     7
440
 33554687
370
    13
100
AcDbLine
 10
0.1203535766601563
 20
0.0778223876953125
 30
0.0
 11
0.1203535766601563
 21
0.0778223876953125
 31
0.0
  0
LINE
  5
1F0
330
92
100
AcDbEntity
  8
STANDARD
  6
AUSGEZOGEN
 62
     7
440
 33554687
370
    13
100
AcDbLine
 10
0.1453535766601562
 20
0.0778223876953125
 30
0.0
 11
0.1453535766601562
 21
0.0778223876953125
 31
0.0
  0
LINE
  5
1F1
330
92
100
AcDbEntity
  8
STANDARD
  6
AUSGEZOGEN
 62
     7
440
 33554687
370
    13
100
AcDbLine
 10
0.1703535766601562
 20
0.0778223876953125
 30
0.0
 11
0.1703535766601562
 21
0.0778223876953125
 31
0.0
  0
LINE
  5
1F2
330
92
100
AcDbEntity
  8
STANDARD
  6
AUSGEZOGEN
 62
     7
440
 33554687
370
    13
100
AcDbLine
 10
0.0600535888671875
 20
0.07292236328125
 30
0.0
 11
0.0600535888671875
 21
0.07292236328125
 31
0.0
  0
LINE
  5
1F3
330
92
100
AcDbEntity
  8
STANDARD
  6
AUSGEZOGEN
 62
     7
440
 33554687
370
    13
100
AcDbLine
 10
0.0850535888671875
 20
0.07292236328125
 30
0.0
 11
0.0850535888671875
 21
0.07292236328125
 31
0.0
  0
LINE
  5
1F4
330
92
100
AcDbEntity
  8
STANDARD
  6
AUSGEZOGEN
 62
     7
440
 33554687
370
    13
100
AcDbLine
 10
0.1100535888671875
 20
0.07292236328125
 30
0.0
 11
0.1100535888671875
 21
0.07292236328125
 31
0.0
  0
LINE
  5
1F5
330
92
100
AcDbEntity
  8
STANDARD
  6
AUSGEZOGEN
 62
     7
440
 33554687
370
    13
100
AcDbLine
 10
0.1350535888671875
 20
0.07292236328125
 30
0.0
 11
0.1350535888671875
 21
0.07292236328125
 31
0.0
  0
LINE
  5
1F6
330
92
100
AcDbEntity
  8
STANDARD
  6
AUSGEZOGEN
 62
     7
440
 33554687
370
    13
100
AcDbLine
 10
0.1600535888671875
 20
0.07292236328125
 30
0.0
 11
0.1600535888671875
 21
0.07292236328125
 31
0.0
  0
LINE
  5
1F7
330
92
100
AcDbEntity
  8
STANDARD
  6
AUSGEZOGEN
 62
     7
440
 33554687
370
    13
100
AcDbLine
 10
0.1850535888671875
 20
0.07292236328125
 30
0.0
 11
0.1850535888671875
 21
0.07292236328125
 31
0.0
  0
LINE
  5
1F8
330
92
100
AcDbEntity
  8
STANDARD
  6
AUSGEZOGEN
 62
     7
440
 33554687
370
    13
100
AcDbLine
 10
0.0649535522460938
 20
0.0704473876953125
 30
0.0
 11
0.0649535522460938
 21
0.0704473876953125
 31
0.0
  0
LINE
  5
1F9
330
92
100
AcDbEntity
  8
STANDARD
  6
AUSGEZOGEN
 62
     7
440
 33554687
370
    13
100
AcDbLine
 10
0.0899535522460937
 20
0.0704473876953125
 30
0.0
 11
0.0899535522460937
 21
0.0704473876953125
 31
0.0
  0
LINE
  5
1FA
330
92
100
AcDbEntity
  8
STANDARD
  6
AUSGEZOGEN
 62
     7
440
 33554687
370
    13
100
AcDbLine
 10
0.1149535522460938
 20
0.0704473876953125
 30
0.0
 11
0.1149535522460938
 21
0.0704473876953125
 31
0.0
  0
LINE
  5
1FB
330
92
100
AcDbEntity
  8
STANDARD
  6
AUSGEZOGEN
 62
     7
440
 33554687
370
    13
100
AcDbLine
 10
0.1399535522460938
 20
0.0704473876953125
 30
0.0
 11
0.1399535522460938
 21
0.0704473876953125
 31
0.0
  0
LINE
  5
1FC
330
92
100
AcDbEntity
  8
STANDARD
  6
AUSGEZOGEN
 62
     7
440
 33554687
370
    13
100
AcDbLine
 10
0.1649535522460938
 20
0.0704473876953125
 30
0.0
 11
0.1649535522460938
 21
0.0704473876953125
 31
0.0
  0
LINE
  5
1FD
330
92
100
AcDbEntity
  8
STANDARD
  6
AUSGEZOGEN
 62
     7
440
 33554687
370
    13
100
AcDbLine
 10
0.0675535888671875
 20
0.0728723754882813
 30
0.0
 11
0.0675535888671875
 21
0.0728723754882813
 31
0.0
  0
LINE
  5
1FE
330
92
100
AcDbEntity
  8
STANDARD
  6
AUSGEZOGEN
 62
     7
440
 33554687
370
    13
100
AcDbLine
 10
0.0925535888671875
 20
0.0728723754882813
 30
0.0
 11
0.0925535888671875
 21
0.0728723754882813
 31
0.0
  0
LINE
  5
1FF
330
92
100
AcDbEntity
  8
STANDARD
  6
AUSGEZOGEN
 62
     7
440
 33554687
370
    13
100
AcDbLine
 10
0.1175535888671875
 20
0.0728723754882813
 30
0.0
 11
0.1175535888671875
 21
0.0728723754882813
 31
0.0
  0
LINE
  5
200
330
92
100
AcDbEntity
  8
STANDARD
  6
AUSGEZOGEN
 62
     7
440
 33554687
370
    13
100
AcDbLine
 10
0.1425535888671875
 20
0.0728723754882813
 30
0.0
 11
0.1425535888671875
 21
0.0728723754882813
 31
0.0
  0
LINE
  5
201
330
92
100
AcDbEntity
  8
STANDARD
  6
AUSGEZOGEN
 62
     7
440
 33554687
370
    13
100
AcDbLine
 10
0.1675535888671875
 20
0.0728723754882813
 30
0.0
 11
0.1675535888671875
 21
0.0728723754882813
 31
0.0
  0
LINE
  5
202
330
92
100
AcDbEntity
  8
STANDARD
  6
AUSGEZOGEN
 62
     7
440
 33554687
370
    13
100
AcDbLine
 10
0.050903564453125
 20
0.0799672241210937
 30
0.0
 11
0.050903564453125
 21
0.0959800415039063
 31
0.0
  0
LINE
  5
203
330
92
100
AcDbEntity
  8
STANDARD
  6
AUSGEZOGEN
 62
     7
440
 33554687
370
    13
100
AcDbLine
 10
0.059903564453125
 20
0.0799672241210937
 30
0.0
 11
0.059903564453125
 21
0.0959800415039063
 31
0.0
  0
LINE
  5
204
330
92
100
AcDbEntity
  8
STANDARD
  6
AUSGEZOGEN
 62
     7
440
 33554687
370
    13
100
AcDbLine
 10
0.068903564453125
 20
0.0799672241210937
 30
0.0
 11
0.068903564453125
 21
0.0959800415039063
 31
0.0
  0
LINE
  5
205
330
92
100
AcDbEntity
  8
STANDARD
  6
AUSGEZOGEN
 62
     7
440
 33554687
370
    13
100
AcDbLine
 10
0.077903564453125
 20
0.0799672241210937
 30
0.0
 11
0.077903564453125
 21
0.0959800415039063
 31
0.0
  0
LINE
  5
206
330
92
100
AcDbEntity
  8
STANDARD
  6
AUSGEZOGEN
 62
     7
440
 33554687
370
    13
100
AcDbLine
 10
0.086903564453125
 20
0.0799672241210937
 30
0.0
 11
0.086903564453125
 21
0.0959800415039063
 31
0.0
  0
LINE
  5
207
330
92
100
AcDbEntity
  8
STANDARD
  6
AUSGEZOGEN
 62
     7
440
 33554687
370
    13
100
AcDbLine
 10
0.095903564453125
 20
0.0799672241210937
 30
0.0
 11
0.095903564453125
 21
0.0959800415039063
 31
0.0
  0
LINE
  5
208
330
92
100
AcDbEntity
  8
STANDARD
  6
AUSGEZOGEN
 62
     7
440
 33554687
370
    13
100
AcDbLine
 10
0.104903564453125
 20
0.0799672241210937
 30
0.0
 11
0.104903564453125
 21
0.0959800415039063
 31
0.0
  0
LINE
  5
209
330
92
100
AcDbEntity
  8
STANDARD
  6
AUSGEZOGEN
 62
     7
440
 33554687
370
    13
100
AcDbLine
 10
0.113903564453125
 20
0.0799672241210937
 30
0.0
 11
0.113903564453125
 21
0.0959800415039063
 31
0.0
  0
LINE
  5
20A
330
92
100
AcDbEntity
  8
STANDARD
  6
AUSGEZOGEN
 62
     7
440
 33554687
370
    13
100
AcDbLine
 10
0.122903564453125
 20
0.0799672241210937
 30
0.0
 11
0.122903564453125
 21
0.0959800415039063
 31
0.0
  0
LINE
  5
20B
330
92
100
AcDbEntity
  8
STANDARD
  6
AUSGEZOGEN
 62
     7
440
 33554687
370
    13
100
AcDbLine
 10
0.131903564453125
 20
0.0799672241210937
 30
0.0
 11
0.131903564453125
 21
0.0959800415039063
 31
0.0
  0
LINE
  5
20C
330
92
100
AcDbEntity
  8
STANDARD
  6
AUSGEZOGEN
 62
     7
440
 33554687
370
    13
100
AcDbLine
 10
0.140903564453125
 20
0.0799672241210937
 30
0.0
 11
0.140903564453125
 21
0.0959800415039063
 31
0.0
  0
LINE
  5
20D
330
92
100
AcDbEntity
  8
STANDARD
  6
AUSGEZOGEN
 62
     7
440
 33554687
370
    13
100
AcDbLine
 10
0.149903564453125
 20
0.0799672241210937
 30
0.0
 11
0.149903564453125
 21
0.0959800415039063
 31
0.0
  0
LINE
  5
20E
330
92
100
AcDbEntity
  8
STANDARD
  6
AUSGEZOGEN
 62
     7
440
 33554687
370
    13
100
AcDbLine
 10
0.158903564453125
 20
0.0799672241210937
 30
0.0
 11
0.158903564453125
 21
0.0959800415039063
 31
0.0
  0
LINE
  5
20F
330
92
100
AcDbEntity
  8
STANDARD
  6
AUSGEZOGEN
 62
     7
440
 33554687
370
    13
100
AcDbLine
 10
0.167903564453125
 20
0.0799672241210937
 30
0.0
 11
0.167903564453125
 21
0.0959800415039063
 31
0.0
  0
LINE
  5
210
330
92
100
AcDbEntity
  8
STANDARD
  6
AUSGEZOGEN
 62
     7
440
 33554687
370
    13
100
AcDbLine
 10
0.176903564453125
 20
0.0799672241210937
 30
0.0
 11
0.176903564453125
 21
0.0959800415039063
 31
0.0
  0
LINE
  5
211
330
92
100
AcDbEntity
  8
STANDARD
  6
AUSGEZOGEN
 62
     7
440
 33554687
370
    13
100
AcDbLine
 10
0.185903564453125
 20
0.0799672241210937
 30
0.0
 11
0.185903564453125
 21
0.0959800415039063
 31
0.0
  0
LINE
  5
212
330
92
100
AcDbEntity
  8
STANDARD
  6
AUSGEZOGEN
 62
     7
440
 33554687
370
    13
100
AcDbLine
 10
0.055403564453125
 20
0.0799672241210937
 30
0.0
 11
0.055403564453125
 21
0.0959800415039063
 31
0.0
  0
LINE
  5
213
330
92
100
AcDbEntity
  8
STANDARD
  6
AUSGEZOGEN
 62
     7
440
 33554687
370
    13
100
AcDbLine
 10
0.064403564453125
 20
0.0799672241210937
 30
0.0
 11
0.064403564453125
 21
0.0959800415039063
 31
0.0
  0
LINE
  5
214
330
92
100
AcDbEntity
  8
STANDARD
  6
AUSGEZOGEN
 62
     7
440
 33554687
370
    13
100
AcDbLine
 10
0.073403564453125
 20
0.0799672241210937
 30
0.0
 11
0.073403564453125
 21
0.0959800415039063
 31
0.0
  0
LINE
  5
215
330
92
100
AcDbEntity
  8
STANDARD
  6
AUSGEZOGEN
 62
     7
440
 33554687
370
    13
100
AcDbLine
 10
0.0824036254882813
 20
0.0799672241210937
 30
0.0
 11
0.0824036254882813
 21
0.0959800415039063
 31
0.0
  0
LINE
  5
216
330
92
100
AcDbEntity
  8
STANDARD
  6
AUSGEZOGEN
 62
     7
440
 33554687
370
    13
100
AcDbLine
 10
0.0914036254882813
 20
0.0799672241210937
 30
0.0
 11
0.0914036254882813
 21
0.0959800415039063
 31
0.0
  0
LINE
  5
217
330
92
100
AcDbEntity
  8
STANDARD
  6
AUSGEZOGEN
 62
     7
440
 33554687
370
    13
100
AcDbLine
 10
0.1004036254882813
 20
0.0799672241210937
 30
0.0
 11
0.1004036254882813
 21
0.0959800415039063
 31
0.0
  0
LINE
  5
218
330
92
100
AcDbEntity
  8
STANDARD
  6
AUSGEZOGEN
 62
     7
440
 33554687
370
    13
100
AcDbLine
 10
0.1094036254882813
 20
0.0799672241210937
 30
0.0
 11
0.1094036254882813
 21
0.0959800415039063
 31
0.0
  0
LINE
  5
219
330
92
100
AcDbEntity
  8
STANDARD
  6
AUSGEZOGEN
 62
     7
440
 33554687
370
    13
100
AcDbLine
 10
0.1184036254882812
 20
0.0799672241210937
 30
0.0
 11
0.1184036254882812
 21
0.0959800415039063
 31
0.0
  0
LINE
  5
21A
330
92
100
AcDbEntity
  8
STANDARD
  6
AUSGEZOGEN
 62
     7
440
 33554687
370
    13
100
AcDbLine
 10
0.1274036254882812
 20
0.0799672241210937
 30
0.0
 11
0.1274036254882812
 21
0.0959800415039063
 31
0.0
  0
LINE
  5
21B
330
92
100
AcDbEntity
  8
STANDARD
  6
AUSGEZOGEN
 62
     7
440
 33554687
370
    13
100
AcDbLine
 10
0.1364036254882812
 20
0.0799672241210937
 30
0.0
 11
0.1364036254882812
 21
0.0959800415039063
 31
0.0
  0
LINE
  5
21C
330
92
100
AcDbEntity
  8
STANDARD
  6
AUSGEZOGEN
 62
     7
440
 33554687
370
    13
100
AcDbLine
 10
0.1454036254882813
 20
0.0799672241210937
 30
0.0
 11
0.1454036254882813
 21
0.0959800415039063
 31
0.0
  0
LINE
  5
21D
330
92
100
AcDbEntity
  8
STANDARD
  6
AUSGEZOGEN
 62
     7
440
 33554687
370
    13
100
AcDbLine
 10
0.1544036254882813
 20
0.0799672241210937
 30
0.0
 11
0.1544036254882813
 21
0.0959800415039063
 31
0.0
  0
LINE
  5
21E
330
92
100
AcDbEntity
  8
STANDARD
  6
AUSGEZOGEN
 62
     7
440
 33554687
370
    13
100
AcDbLine
 10
0.1634036254882812
 20
0.0799672241210937
 30
0.0
 11
0.1634036254882812
 21
0.0959800415039063
 31
0.0
  0
LINE
  5
21F
330
92
100
AcDbEntity
  8
STANDARD
  6
AUSGEZOGEN
 62
     7
440
 33554687
370
    13
100
AcDbLine
 10
0.1724036254882813
 20
0.0799672241210937
 30
0.0
 11
0.1724036254882813
 21
0.0959800415039063
 31
0.0
  0
LINE
  5
220
330
92
100
AcDbEntity
  8
STANDARD
  6
AUSGEZOGEN
 62
     7
440
 33554687
370
    13
100
AcDbLine
 10
0.1814036254882813
 20
0.0799672241210937
 30
0.0
 11
0.1814036254882813
 21
0.0959800415039063
 31
0.0
  0
LINE
  5
221
330
92
100
AcDbEntity
  8
STANDARD
  6
AUSGEZOGEN
 62
     7
440
 33554687
370
    13
100
AcDbLine
 10
0.0503239135742188
 20
0.1650313720703125
 30
0.0
 11
0.0627670288085938
 21
0.1650313720703125
 31
0.0
  0
LINE
  5
222
330
92
100
AcDbEntity
  8
STANDARD
  6
AUSGEZOGEN
 62
     7
440
 33554687
370
    13
100
AcDbLine
 10
0.0538238525390625
 20
0.1650313720703125
 30
0.0
 11
0.0540739135742188
 21
0.1650313720703125
 31
0.0
  0
LINE
  5
223
330
92
100
AcDbEntity
  8
STANDARD
  6
AUSGEZOGEN
 62
     7
440
 33554687
370
    13
100
AcDbLine
 10
0.0503239135742188
 20
0.1650313720703125
 30
0.0
 11
0.0503239135742188
 21
0.1650313720703125
 31
0.0
  0
LINE
  5
224
330
92
100
AcDbEntity
  8
STANDARD
  6
AUSGEZOGEN
 62
     7
440
 33554687
370
    13
100
AcDbLine
 10
0.0503239135742188
 20
0.1650313720703125
 30
0.0
 11
0.0503239135742188
 21
0.1650313720703125
 31
0.0
  0
LINE
  5
225
330
92
100
AcDbEntity
  8
STANDARD
  6
AUSGEZOGEN
 62
     7
440
 33554687
370
    13
100
AcDbLine
 10
0.0503239135742188
 20
0.1650313720703125
 30
0.0
 11
0.0503239135742188
 21
0.1650313720703125
 31
0.0
  0
LINE
  5
226
330
92
100
AcDbEntity
  8
STANDARD
  6
AUSGEZOGEN
 62
     7
440
 33554687
370
    13
100
AcDbLine
 10
0.0503239135742188
 20
0.1650313720703125
 30
0.0
 11
0.0538238525390625
 21
0.1655314331054688
 31
0.0
  0
LINE
  5
227
330
92
100
AcDbEntity
  8
STANDARD
  6
AUSGEZOGEN
 62
     7
440
 33554687
370
    13
100
AcDbLine
 10
0.0538238525390625
 20
0.1655314331054688
 30
0.0
 11
0.0538238525390625
 21
0.1645314331054687
 31
0.0
  0
LINE
  5
228
330
92
100
AcDbEntity
  8
STANDARD
  6
AUSGEZOGEN
 62
     7
440
 33554687
370
    13
100
AcDbLine
 10
0.0538238525390625
 20
0.1645314331054687
 30
0.0
 11
0.0503239135742188
 21
0.1650313720703125
 31
0.0
  0
HATCH
  5
229
330
92
100
AcDbEntity
  8
STANDARD
  6
AUSGEZOGEN
 62
     7
440
 33554687
370
    13
100
AcDbHatch
 10
0.0
 20
0.0
 30
0.0
210
0.0
220
0.0
230
1.0
  2
SOLID
 70
     1
 71
     0
 91
        1
 92
        3
 72
     0
 73
     1
 93
        3
 10
0.0538238525390625
 20
0.1645314331054687
 10
0.0538238525390625
 20
0.1655314331054688
 10
0.0503239135742188
 20
0.1650313720703125
 97
        0
 75
     0
 76
     1
 98
        0
  0
LINE
  5
22A
330
92
100
AcDbEntity
  8
STANDARD
  6
AUSGEZOGEN
 62
     7
440
 33554687
370
    35
100
AcDbLine
 10
0.0479337158203125
 20
0.1619800415039062
 30
0.0
 11
0.1012213134765625
 21
0.1619800415039062
 31
0.0
  0
LINE
  5
22B
330
92
100
AcDbEntity
  8
STANDARD
  6
AUSGEZOGEN
 62
     7
440
 33554687
370
    35
100
AcDbLine
 10
0.1012213134765625
 20
0.1619800415039062
 30
0.0
 11
0.1012213134765625
 21
0.1479800415039063
 31
0.0
  0
LINE
  5
22C
330
92
100
AcDbEntity
  8
STANDARD
  6
AUSGEZOGEN
 62
     7
440
 33554687
370
    70
100
AcDbLine
 10
0.1012213134765625
 20
0.1819800415039063
 30
0.0
 11
0.1212213745117188
 21
0.1819800415039063
 31
0.0
  0
LINE
  5
22D
330
92
100
AcDbEntity
  8
STANDARD
  6
AUSGEZOGEN
 62
     7
440
 33554687
370
    70
100
AcDbLine
 10
0.1012213134765625
 20
0.1489168701171875
 30
0.0
 11
0.1012213134765625
 21
0.1819800415039063
 31
0.0
  0
LINE
  5
22E
330
92
100
AcDbEntity
  8
PROJEKT
  6
AUSGEZOGEN
 62
     7
440
 33554687
370
    35
100
AcDbLine
 10
0.1012213134765625
 20
0.1489168701171875
 30
0.0
 11
0.107020263671875
 21
0.1492080078125
 31
0.0
  0
LINE
  5
22F
330
92
100
AcDbEntity
  8
PROJEKT
  6
AUSGEZOGEN
 62
     7
440
 33554687
370
    35
100
AcDbLine
 10
0.1156838989257813
 20
0.1484945678710937
 30
0.0
 11
0.1212213745117188
 21
0.1489625244140625
 31
0.0
  0
LINE
  5
230
330
92
100
AcDbEntity
  8
PROJEKT
  6
AUSGEZOGEN
 62
     7
440
 33554687
370
    35
100
AcDbLine
 10
0.107020263671875
 20
0.1492080078125
 30
0.0
 11
0.1156838989257813
 21
0.1484945678710937
 31
0.0
  0
LINE
  5
231
330
92
100
AcDbEntity
  8
STANDARD
  6
AUSGEZOGEN
 62
     7
440
 33554687
370
    25
100
AcDbLine
 10
0.101119384765625
 20
0.2125800170898438
 30
0.0
 11
0.0691194458007812
 21
0.2125800170898438
 31
0.0
  0
LINE
  5
232
330
92
100
AcDbEntity
  8
STANDARD
  6
AUSGEZOGEN
 62
     7
440
 33554687
370
    25
100
AcDbLine
 10
0.0983193969726563
 20
0.2125800170898438
 30
0.0
 11
0.098119384765625
 21
0.2125800170898438
 31
0.0
  0
LINE
  5
233
330
92
100
AcDbEntity
  8
STANDARD
  6
AUSGEZOGEN
 62
     7
440
 33554687
370
    25
100
AcDbLine
 10
0.101119384765625
 20
0.2125800170898438
 30
0.0
 11
0.101119384765625
 21
0.2125800170898438
 31
0.0
  0
LINE
  5
234
330
92
100
AcDbEntity
  8
STANDARD
  6
AUSGEZOGEN
 62
     7
440
 33554687
370
    25
100
AcDbLine
 10
0.101119384765625
 20
0.2125800170898438
 30
0.0
 11
0.101119384765625
 21
0.2125800170898438
 31
0.0
  0
LINE
  5
235
330
92
100
AcDbEntity
  8
STANDARD
  6
AUSGEZOGEN
 62
     7
440
 33554687
370
    25
100
AcDbLine
 10
0.101119384765625
 20
0.2125800170898438
 30
0.0
 11
0.101119384765625
 21
0.2125800170898438
 31
0.0
  0
LINE
  5
236
330
92
100
AcDbEntity
  8
STANDARD
  6
AUSGEZOGEN
 62
     7
440
 33554687
370
    25
100
AcDbLine
 10
0.101119384765625
 20
0.2125800170898438
 30
0.0
 11
0.0983193969726563
 21
0.2121799926757812
 31
0.0
  0
LINE
  5
237
330
92
100
AcDbEntity
  8
STANDARD
  6
AUSGEZOGEN
 62
     7
440
 33554687
370
    25
100
AcDbLine
 10
0.0983193969726563
 20
0.2121799926757812
 30
0.0
 11
0.0983193969726563
 21
0.2129799194335938
 31
0.0
  0
LINE
  5
238
330
92
100
AcDbEntity
  8
STANDARD
  6
AUSGEZOGEN
 62
     7
440
 33554687
370
    25
100
AcDbLine
 10
0.0983193969726563
 20
0.2129799194335938
 30
0.0
 11
0.101119384765625
 21
0.2125800170898438
 31
0.0
  0
HATCH
  5
239
330
92
100
AcDbEntity
  8
STANDARD
  6
AUSGEZOGEN
 62
     7
440
 33554687
370
    25
100
AcDbHatch
 10
0.0
 20
0.0
 30
0.0
210
0.0
220
0.0
230
1.0
  2
SOLID
 70
     1
 71
     0
 91
        1
 92
        3
 72
     0
 73
     1
 93
        3
 10
0.0983193969726563
 20
0.2129799194335938
 10
0.0983193969726563
 20
0.2121799926757812
 10
0.101119384765625
 20
0.2125800170898438
 97
        0
 75
     0
 76
     1
 98
        0
  0
LINE
  5
23A
330
92
100
AcDbEntity
  8
STANDARD
  6
AUSGEZOGEN
 62
     7
440
 33554687
370
    25
100
AcDbLine
 10
0.101119384765625
 20
0.1972958984375
 30
0.0
 11
0.101119384765625
 21
0.2172958984375
 31
0.0
  0
LINE
  5
23B
330
92
100
AcDbEntity
  8
STANDARD
  6
AUSGEZOGEN
 62
     7
440
 33554687
370
    25
100
AcDbLine
 10
0.101119384765625
 20
0.2125800170898438
 30
0.0
 11
0.127119384765625
 21
0.2125800170898438
 31
0.0
  0
LINE
  5
23C
330
92
100
AcDbEntity
  8
STANDARD
  6
AUSGEZOGEN
 62
     7
440
 33554687
370
    25
100
AcDbLine
 10
0.10391943359375
 20
0.2125800170898438
 30
0.0
 11
0.104119384765625
 21
0.2125800170898438
 31
0.0
  0
LINE
  5
23D
330
92
100
AcDbEntity
  8
STANDARD
  6
AUSGEZOGEN
 62
     7
440
 33554687
370
    25
100
AcDbLine
 10
0.101119384765625
 20
0.2125800170898438
 30
0.0
 11
0.101119384765625
 21
0.2125800170898438
 31
0.0
  0
LINE
  5
23E
330
92
100
AcDbEntity
  8
STANDARD
  6
AUSGEZOGEN
 62
     7
440
 33554687
370
    25
100
AcDbLine
 10
0.101119384765625
 20
0.2125800170898438
 30
0.0
 11
0.101119384765625
 21
0.2125800170898438
 31
0.0
  0
LINE
  5
23F
330
92
100
AcDbEntity
  8
STANDARD
  6
AUSGEZOGEN
 62
     7
440
 33554687
370
    25
100
AcDbLine
 10
0.101119384765625
 20
0.2125800170898438
 30
0.0
 11
0.101119384765625
 21
0.2125800170898438
 31
0.0
  0
LINE
  5
240
330
92
100
AcDbEntity
  8
STANDARD
  6
AUSGEZOGEN
 62
     7
440
 33554687
370
    25
100
AcDbLine
 10
0.101119384765625
 20
0.2125800170898438
 30
0.0
 11
0.10391943359375
 21
0.2129799194335938
 31
0.0
  0
LINE
  5
241
330
92
100
AcDbEntity
  8
STANDARD
  6
AUSGEZOGEN
 62
     7
440
 33554687
370
    25
100
AcDbLine
 10
0.10391943359375
 20
0.2129799194335938
 30
0.0
 11
0.10391943359375
 21
0.2121799926757812
 31
0.0
  0
LINE
  5
242
330
92
100
AcDbEntity
  8
STANDARD
  6
AUSGEZOGEN
 62
     7
440
 33554687
370
    25
100
AcDbLine
 10
0.10391943359375
 20
0.2121799926757812
 30
0.0
 11
0.101119384765625
 21
0.2125800170898438
 31
0.0
  0
HATCH
  5
243
330
92
100
AcDbEntity
  8
STANDARD
  6
AUSGEZOGEN
 62
     7
440
 33554687
370
    25
100
AcDbHatch
 10
0.0
 20
0.0
 30
0.0
210
0.0
220
0.0
230
1.0
  2
SOLID
 70
     1
 71
     0
 91
        1
 92
        3
 72
     0
 73
     1
 93
        3
 10
0.10391943359375
 20
0.2121799926757812
 10
0.10391943359375
 20
0.2129799194335938
 10
0.101119384765625
 20
0.2125800170898438
 97
        0
 75
     0
 76
     1
 98
        0
  0
LINE
  5
244
330
92
100
AcDbEntity
  8
STANDARD
  6
AUSGEZOGEN
 62
     7
440
 33554687
370
    25
100
AcDbLine
 10
0.1085111694335937
 20
0.1389913940429688
 30
0.0
 11
0.1085111694335937
 21
0.1485571899414063
 31
0.0
  0
LINE
  5
245
330
92
100
AcDbEntity
  8
STANDARD
  6
AUSGEZOGEN
 62
     7
440
 33554687
370
    25
100
AcDbLine
 10
0.1085111694335937
 20
0.1490072021484375
 30
0.0
 11
0.1085111694335937
 21
0.1490072021484375
 31
0.0
  0
LINE
  5
246
330
92
100
AcDbEntity
  8
STANDARD
  6
AUSGEZOGEN
 62
     7
440
 33554687
370
    25
100
AcDbLine
 10
0.1085111694335937
 20
0.1481072387695312
 30
0.0
 11
0.1085111694335937
 21
0.1481072387695312
 31
0.0
  0
LINE
  5
247
330
92
100
AcDbEntity
  8
STANDARD
  6
AUSGEZOGEN
 62
     7
440
 33554687
370
    25
100
AcDbLine
 10
0.1080612182617188
 20
0.1485571899414063
 30
0.0
 11
0.1080612182617188
 21
0.1485571899414063
 31
0.0
  0
LINE
  5
248
330
92
100
AcDbEntity
  8
STANDARD
  6
AUSGEZOGEN
 62
     7
440
 33554687
370
    25
100
AcDbLine
 10
0.108961181640625
 20
0.1485571899414063
 30
0.0
 11
0.108961181640625
 21
0.1485571899414063
 31
0.0
  0
CIRCLE
  5
249
330
92
100
AcDbEntity
  8
STANDARD
  6
AUSGEZOGEN
 62
     7
440
 33554687
370
    25
100
AcDbCircle
 10
0.1085111694335937
 20
0.1485571899414063
 30
0.0
 40
0.0004500000039116
  0
HATCH
  5
24A
330
92
100
AcDbEntity
  8
STANDARD
  6
AUSGEZOGEN
 62
     7
440
 33554687
370
    25
100
AcDbHatch
 10
0.0
 20
0.0
 30
0.0
210
0.0
220
0.0
230
1.0
  2
SOLID
 70
     1
 71
     0
 91
        1
 92
        3
 72
     0
 73
     1
 93
        3
 10
0.1087362060546875
 20
0.148170166015625
 10
0.1082861938476563
 20
0.148170166015625
 10
0.1085111694335937
 20
0.1481072387695312
 97
        0
 75
     0
 76
     1
 98
        0
  0
HATCH
  5
24B
330
92
100
AcDbEntity
  8
STANDARD
  6
AUSGEZOGEN
 62
     7
440
 33554687
370
    25
100
AcDbHatch
 10
0.0
 20
0.0
 30
0.0
210
0.0
220
0.0
230
1.0
  2
SOLID
 70
     1
 71
     0
 91
        1
 92
        3
 72
     0
 73
     1
 93
        3
 10
0.1082861938476563
 20
0.148170166015625
 10
0.1087362060546875
 20
0.148170166015625
 10
0.108898193359375
 20
0.1483322143554688
 97
        0
 75
     0
 76
     1
 98
        0
  0
HATCH
  5
24C
330
92
100
AcDbEntity
  8
STANDARD
  6
AUSGEZOGEN
 62
     7
440
 33554687
370
    25
100
AcDbHatch
 10
0.0
 20
0.0
 30
0.0
210
0.0
220
0.0
230
1.0
  2
SOLID
 70
     1
 71
     0
 91
        1
 92
        3
 72
     0
 73
     1
 93
        3
 10
0.1082861938476563
 20
0.148170166015625
 10
0.108898193359375
 20
0.1483322143554688
 10
0.1081242065429688
 20
0.1483322143554688
 97
        0
 75
     0
 76
     1
 98
        0
  0
HATCH
  5
24D
330
92
100
AcDbEntity
  8
STANDARD
  6
AUSGEZOGEN
 62
     7
440
 33554687
370
    25
100
AcDbHatch
 10
0.0
 20
0.0
 30
0.0
210
0.0
220
0.0
230
1.0
  2
SOLID
 70
     1
 71
     0
 91
        1
 92
        3
 72
     0
 73
     1
 93
        3
 10
0.1081242065429688
 20
0.1483322143554688
 10
0.108898193359375
 20
0.1483322143554688
 10
0.108961181640625
 20
0.1485571899414063
 97
        0
 75
     0
 76
     1
 98
        0
  0
HATCH
  5
24E
330
92
100
AcDbEntity
  8
STANDARD
  6
AUSGEZOGEN
 62
     7
440
 33554687
370
    25
100
AcDbHatch
 10
0.0
 20
0.0
 30
0.0
210
0.0
220
0.0
230
1.0
  2
SOLID
 70
     1
 71
     0
 91
        1
 92
        3
 72
     0
 73
     1
 93
        3
 10
0.1081242065429688
 20
0.1483322143554688
 10
0.108961181640625
 20
0.1485571899414063
 10
0.1080612182617188
 20
0.1485571899414063
 97
        0
 75
     0
 76
     1
 98
        0
  0
HATCH
  5
24F
330
92
100
AcDbEntity
  8
STANDARD
  6
AUSGEZOGEN
 62
     7
440
 33554687
370
    25
100
AcDbHatch
 10
0.0
 20
0.0
 30
0.0
210
0.0
220
0.0
230
1.0
  2
SOLID
 70
     1
 71
     0
 91
        1
 92
        3
 72
     0
 73
     1
 93
        3
 10
0.1080612182617188
 20
0.1485571899414063
 10
0.108961181640625
 20
0.1485571899414063
 10
0.108898193359375
 20
0.1487822265625
 97
        0
 75
     0
 76
     1
 98
        0
  0
HATCH
  5
250
330
92
100
AcDbEntity
  8
STANDARD
  6
AUSGEZOGEN
 62
     7
440
 33554687
370
    25
100
AcDbHatch
 10
0.0
 20
0.0
 30
0.0
210
0.0
220
0.0
230
1.0
  2
SOLID
 70
     1
 71
     0
 91
        1
 92
        3
 72
     0
 73
     1
 93
        3
 10
0.1080612182617188
 20
0.1485571899414063
 10
0.108898193359375
 20
0.1487822265625
 10
0.1081242065429688
 20
0.1487822265625
 97
        0
 75
     0
 76
     1
 98
        0
  0
HATCH
  5
251
330
92
100
AcDbEntity
  8
STANDARD
  6
AUSGEZOGEN
 62
     7
440
 33554687
370
    25
100
AcDbHatch
 10
0.0
 20
0.0
 30
0.0
210
0.0
220
0.0
230
1.0
  2
SOLID
 70
     1
 71
     0
 91
        1
 92
        3
 72
     0
 73
     1
 93
        3
 10
0.1081242065429688
 20
0.1487822265625
 10
0.108898193359375
 20
0.1487822265625
 10
0.1087362060546875
 20
0.1489442138671875
 97
        0
 75
     0
 76
     1
 98
        0
  0
HATCH
  5
252
330
92
100
AcDbEntity
  8
STANDARD
  6
AUSGEZOGEN
 62
     7
440
 33554687
370
    25
100
AcDbHatch
 10
0.0
 20
0.0
 30
0.0
210
0.0
220
0.0
230
1.0
  2
SOLID
 70
     1
 71
     0
 91
        1
 92
        3
 72
     0
 73
     1
 93
        3
 10
0.1081242065429688
 20
0.1487822265625
 10
0.1087362060546875
 20
0.1489442138671875
 10
0.1082861938476563
 20
0.1489442138671875
 97
        0
 75
     0
 76
     1
 98
        0
  0
HATCH
  5
253
330
92
100
AcDbEntity
  8
STANDARD
  6
AUSGEZOGEN
 62
     7
440
 33554687
370
    25
100
AcDbHatch
 10
0.0
 20
0.0
 30
0.0
210
0.0
220
0.0
230
1.0
  2
SOLID
 70
     1
 71
     0
 91
        1
 92
        3
 72
     0
 73
     1
 93
        3
 10
0.1082861938476563
 20
0.1489442138671875
 10
0.1087362060546875
 20
0.1489442138671875
 10
0.1085111694335937
 20
0.1490072021484375
 97
        0
 75
     0
 76
     1
 98
        0
  0
LINE
  5
254
330
92
100
AcDbEntity
  8
STANDARD
  6
AUSGEZOGEN
 62
     7
440
 33554687
370
    25
100
AcDbLine
 10
0.1766754150390625
 20
0.1799647827148438
 30
0.0
 11
0.176950927734375
 21
0.1799717407226563
 31
0.0
  0
LINE
  5
255
330
92
100
AcDbEntity
  8
STANDARD
  6
AUSGEZOGEN
 62
     7
440
 33554687
370
    25
100
AcDbLine
 10
0.176950927734375
 20
0.1799717407226563
 30
0.0
 11
0.177259033203125
 21
0.180127197265625
 31
0.0
  0
LINE
  5
256
330
92
100
AcDbEntity
  8
STANDARD
  6
AUSGEZOGEN
 62
     7
440
 33554687
370
    25
100
AcDbLine
 10
0.177259033203125
 20
0.180127197265625
 30
0.0
 11
0.1772865600585938
 21
0.1807468872070312
 31
0.0
  0
LINE
  5
257
330
92
100
AcDbEntity
  8
STANDARD
  6
AUSGEZOGEN
 62
     7
440
 33554687
370
    25
100
AcDbLine
 10
0.1772865600585938
 20
0.1807468872070312
 30
0.0
 11
0.1771779174804688
 21
0.1820377807617188
 31
0.0
  0
LINE
  5
258
330
92
100
AcDbEntity
  8
STANDARD
  6
AUSGEZOGEN
 62
     7
440
 33554687
370
    25
100
AcDbLine
 10
0.1771779174804688
 20
0.1820377807617188
 30
0.0
 11
0.177142578125
 21
0.1847301635742188
 31
0.0
  0
LINE
  5
259
330
92
100
AcDbEntity
  8
STANDARD
  6
AUSGEZOGEN
 62
     7
440
 33554687
370
    25
100
AcDbLine
 10
0.177142578125
 20
0.1847301635742188
 30
0.0
 11
0.1777179565429688
 21
0.1802120361328125
 31
0.0
  0
LINE
  5
25A
330
92
100
AcDbEntity
  8
STANDARD
  6
AUSGEZOGEN
 62
     7
440
 33554687
370
    25
100
AcDbLine
 10
0.1777179565429688
 20
0.1802120361328125
 30
0.0
 11
0.1780901489257813
 21
0.1799667358398438
 31
0.0
  0
LINE
  5
25B
330
92
100
AcDbEntity
  8
STANDARD
  6
AUSGEZOGEN
 62
     7
440
 33554687
370
    25
100
AcDbLine
 10
0.1780901489257813
 20
0.1799667358398438
 30
0.0
 11
0.1785808715820313
 21
0.1802374267578125
 31
0.0
  0
LINE
  5
25C
330
92
100
AcDbEntity
  8
STANDARD
  6
AUSGEZOGEN
 62
     7
440
 33554687
370
    25
100
AcDbLine
 10
0.1785808715820313
 20
0.1802374267578125
 30
0.0
 11
0.1787247924804687
 21
0.1807112426757813
 31
0.0
  0
LINE
  5
25D
330
92
100
AcDbEntity
  8
STANDARD
  6
AUSGEZOGEN
 62
     7
440
 33554687
370
    25
100
AcDbLine
 10
0.1787247924804687
 20
0.1807112426757813
 30
0.0
 11
0.1785386352539063
 21
0.181904296875
 31
0.0
  0
LINE
  5
25E
330
92
100
AcDbEntity
  8
STANDARD
  6
AUSGEZOGEN
 62
     7
440
 33554687
370
    25
100
AcDbLine
 10
0.1785386352539063
 20
0.181904296875
 30
0.0
 11
0.178521728515625
 21
0.18327490234375
 31
0.0
  0
LINE
  5
25F
330
92
100
AcDbEntity
  8
STANDARD
  6
AUSGEZOGEN
 62
     7
440
 33554687
370
    25
100
AcDbLine
 10
0.178521728515625
 20
0.18327490234375
 30
0.0
 11
0.1786317138671875
 21
0.1824119262695313
 31
0.0
  0
LINE
  5
260
330
92
100
AcDbEntity
  8
STANDARD
  6
AUSGEZOGEN
 62
     7
440
 33554687
370
    25
100
AcDbLine
 10
0.1786317138671875
 20
0.1824119262695313
 30
0.0
 11
0.1789954833984375
 21
0.1810242919921875
 31
0.0
  0
LINE
  5
261
330
92
100
AcDbEntity
  8
STANDARD
  6
AUSGEZOGEN
 62
     7
440
 33554687
370
    25
100
AcDbLine
 10
0.1789954833984375
 20
0.1810242919921875
 30
0.0
 11
0.179553955078125
 21
0.1799581909179687
 31
0.0
  0
LINE
  5
262
330
92
100
AcDbEntity
  8
STANDARD
  6
AUSGEZOGEN
 62
     7
440
 33554687
370
    25
100
AcDbLine
 10
0.179553955078125
 20
0.1799581909179687
 30
0.0
 11
0.1798331298828125
 21
0.1801359252929688
 31
0.0
  0
LINE
  5
263
330
92
100
AcDbEntity
  8
STANDARD
  6
AUSGEZOGEN
 62
     7
440
 33554687
370
    25
100
AcDbLine
 10
0.1798331298828125
 20
0.1801359252929688
 30
0.0
 11
0.1799431762695312
 21
0.18177734375
 31
0.0
  0
LINE
  5
264
330
92
100
AcDbEntity
  8
STANDARD
  6
AUSGEZOGEN
 62
     7
440
 33554687
370
    25
100
AcDbLine
 10
0.1799431762695312
 20
0.18177734375
 30
0.0
 11
0.1799600219726563
 21
0.1847387084960938
 31
0.0
  0
LINE
  5
265
330
92
100
AcDbEntity
  8
STANDARD
  6
AUSGEZOGEN
 62
     7
440
 33554687
370
    25
100
AcDbLine
 10
0.1799600219726563
 20
0.1847387084960938
 30
0.0
 11
0.180044677734375
 21
0.183943359375
 31
0.0
  0
LINE
  5
266
330
92
100
AcDbEntity
  8
STANDARD
  6
AUSGEZOGEN
 62
     7
440
 33554687
370
    25
100
AcDbLine
 10
0.180044677734375
 20
0.183943359375
 30
0.0
 11
0.1803399047851562
 21
0.182381591796875
 31
0.0
  0
LINE
  5
267
330
92
100
AcDbEntity
  8
STANDARD
  6
AUSGEZOGEN
 62
     7
440
 33554687
370
    25
100
AcDbLine
 10
0.1803399047851562
 20
0.182381591796875
 30
0.0
 11
0.1804259643554688
 21
0.181170166015625
 31
0.0
  0
LINE
  5
268
330
92
100
AcDbEntity
  8
STANDARD
  6
AUSGEZOGEN
 62
     7
440
 33554687
370
    25
100
AcDbLine
 10
0.1804259643554688
 20
0.181170166015625
 30
0.0
 11
0.1806903686523438
 21
0.1802924194335938
 31
0.0
  0
LINE
  5
269
330
92
100
AcDbEntity
  8
STANDARD
  6
AUSGEZOGEN
 62
     7
440
 33554687
370
    25
100
AcDbLine
 10
0.1806903686523438
 20
0.1802924194335938
 30
0.0
 11
0.1809230346679687
 21
0.1799221801757813
 31
0.0
  0
LINE
  5
26A
330
92
100
AcDbEntity
  8
STANDARD
  6
AUSGEZOGEN
 62
     7
440
 33554687
370
    25
100
AcDbLine
 10
0.1809230346679687
 20
0.1799221801757813
 30
0.0
 11
0.1817691650390625
 21
0.1799644775390625
 31
0.0
  0
LINE
  5
26B
330
92
100
AcDbEntity
  8
STANDARD
  6
AUSGEZOGEN
 62
     7
440
 33554687
370
    25
100
AcDbLine
 10
0.1817691650390625
 20
0.1799644775390625
 30
0.0
 11
0.1820441284179687
 21
0.1801232299804688
 31
0.0
  0
LINE
  5
26C
330
92
100
AcDbEntity
  8
STANDARD
  6
AUSGEZOGEN
 62
     7
440
 33554687
370
    25
100
AcDbLine
 10
0.1820441284179687
 20
0.1801232299804688
 30
0.0
 11
0.1821016845703125
 21
0.1808124389648438
 31
0.0
  0
LINE
  5
26D
330
92
100
AcDbEntity
  8
STANDARD
  6
AUSGEZOGEN
 62
     7
440
 33554687
370
    25
100
AcDbLine
 10
0.1821016845703125
 20
0.1808124389648438
 30
0.0
 11
0.1819662475585938
 21
0.18213232421875
 31
0.0
  0
LINE
  5
26E
330
92
100
AcDbEntity
  8
STANDARD
  6
AUSGEZOGEN
 62
     7
440
 33554687
370
    25
100
AcDbLine
 10
0.1819662475585938
 20
0.18213232421875
 30
0.0
 11
0.1819829711914062
 21
0.1846949462890625
 31
0.0
  0
LINE
  5
26F
330
92
100
AcDbEntity
  8
STANDARD
  6
AUSGEZOGEN
 62
     7
440
 33554687
370
    25
100
AcDbLine
 10
0.1819829711914062
 20
0.1846949462890625
 30
0.0
 11
0.1825223388671875
 21
0.1802529907226562
 31
0.0
  0
LINE
  5
270
330
92
100
AcDbEntity
  8
STANDARD
  6
AUSGEZOGEN
 62
     7
440
 33554687
370
    25
100
AcDbLine
 10
0.1825223388671875
 20
0.1802529907226562
 30
0.0
 11
0.182910400390625
 21
0.1799481201171875
 31
0.0
  0
LINE
  5
271
330
92
100
AcDbEntity
  8
STANDARD
  6
AUSGEZOGEN
 62
     7
440
 33554687
370
    25
100
AcDbLine
 10
0.182910400390625
 20
0.1799481201171875
 30
0.0
 11
0.1833435668945312
 21
0.1802459716796875
 31
0.0
  0
LINE
  5
272
330
92
100
AcDbEntity
  8
STANDARD
  6
AUSGEZOGEN
 62
     7
440
 33554687
370
    25
100
AcDbLine
 10
0.1833435668945312
 20
0.1802459716796875
 30
0.0
 11
0.1835330810546875
 21
0.1807738647460937
 31
0.0
  0
LINE
  5
273
330
92
100
AcDbEntity
  8
STANDARD
  6
AUSGEZOGEN
 62
     7
440
 33554687
370
    25
100
AcDbLine
 10
0.1835330810546875
 20
0.1807738647460937
 30
0.0
 11
0.1833164672851562
 21
0.1819584350585937
 31
0.0
  0
LINE
  5
274
330
92
100
AcDbEntity
  8
STANDARD
  6
AUSGEZOGEN
 62
     7
440
 33554687
370
    25
100
AcDbLine
 10
0.1833164672851562
 20
0.1819584350585937
 30
0.0
 11
0.183296142578125
 21
0.1832783813476563
 31
0.0
  0
LINE
  5
275
330
92
100
AcDbEntity
  8
STANDARD
  6
AUSGEZOGEN
 62
     7
440
 33554687
370
    25
100
AcDbLine
 10
0.183296142578125
 20
0.1832783813476563
 30
0.0
 11
0.18341796875
 21
0.1824254760742187
 31
0.0
  0
LINE
  5
276
330
92
100
AcDbEntity
  8
STANDARD
  6
AUSGEZOGEN
 62
     7
440
 33554687
370
    25
100
AcDbLine
 10
0.18341796875
 20
0.1824254760742187
 30
0.0
 11
0.1838711547851563
 21
0.1808555908203125
 31
0.0
  0
LINE
  5
277
330
92
100
AcDbEntity
  8
STANDARD
  6
AUSGEZOGEN
 62
     7
440
 33554687
370
    25
100
AcDbLine
 10
0.1838711547851563
 20
0.1808555908203125
 30
0.0
 11
0.1843471069335937
 21
0.1799697875976562
 31
0.0
  0
LINE
  5
278
330
92
100
AcDbEntity
  8
STANDARD
  6
AUSGEZOGEN
 62
     7
440
 33554687
370
    25
100
AcDbLine
 10
0.1646753540039063
 20
0.1799647827148438
 30
0.0
 11
0.164950927734375
 21
0.1799717407226563
 31
0.0
  0
LINE
  5
279
330
92
100
AcDbEntity
  8
STANDARD
  6
AUSGEZOGEN
 62
     7
440
 33554687
370
    25
100
AcDbLine
 10
0.164950927734375
 20
0.1799717407226563
 30
0.0
 11
0.165259033203125
 21
0.180127197265625
 31
0.0
  0
LINE
  5
27A
330
92
100
AcDbEntity
  8
STANDARD
  6
AUSGEZOGEN
 62
     7
440
 33554687
370
    25
100
AcDbLine
 10
0.165259033203125
 20
0.180127197265625
 30
0.0
 11
0.1652865600585937
 21
0.1807468872070312
 31
0.0
  0
LINE
  5
27B
330
92
100
AcDbEntity
  8
STANDARD
  6
AUSGEZOGEN
 62
     7
440
 33554687
370
    25
100
AcDbLine
 10
0.1652865600585937
 20
0.1807468872070312
 30
0.0
 11
0.1651779174804688
 21
0.1820377807617188
 31
0.0
  0
LINE
  5
27C
330
92
100
AcDbEntity
  8
STANDARD
  6
AUSGEZOGEN
 62
     7
440
 33554687
370
    25
100
AcDbLine
 10
0.1651779174804688
 20
0.1820377807617188
 30
0.0
 11
0.165142578125
 21
0.1847301635742188
 31
0.0
  0
LINE
  5
27D
330
92
100
AcDbEntity
  8
STANDARD
  6
AUSGEZOGEN
 62
     7
440
 33554687
370
    25
100
AcDbLine
 10
0.165142578125
 20
0.1847301635742188
 30
0.0
 11
0.1657179565429688
 21
0.1802120361328125
 31
0.0
  0
LINE
  5
27E
330
92
100
AcDbEntity
  8
STANDARD
  6
AUSGEZOGEN
 62
     7
440
 33554687
370
    25
100
AcDbLine
 10
0.1657179565429688
 20
0.1802120361328125
 30
0.0
 11
0.1660901489257813
 21
0.1799667358398438
 31
0.0
  0
LINE
  5
27F
330
92
100
AcDbEntity
  8
STANDARD
  6
AUSGEZOGEN
 62
     7
440
 33554687
370
    25
100
AcDbLine
 10
0.1660901489257813
 20
0.1799667358398438
 30
0.0
 11
0.1665808715820312
 21
0.1802374267578125
 31
0.0
  0
LINE
  5
280
330
92
100
AcDbEntity
  8
STANDARD
  6
AUSGEZOGEN
 62
     7
440
 33554687
370
    25
100
AcDbLine
 10
0.1665808715820312
 20
0.1802374267578125
 30
0.0
 11
0.1667247924804688
 21
0.1807112426757813
 31
0.0
  0
LINE
  5
281
330
92
100
AcDbEntity
  8
STANDARD
  6
AUSGEZOGEN
 62
     7
440
 33554687
370
    25
100
AcDbLine
 10
0.1667247924804688
 20
0.1807112426757813
 30
0.0
 11
0.1665386352539062
 21
0.181904296875
 31
0.0
  0
LINE
  5
282
330
92
100
AcDbEntity
  8
STANDARD
  6
AUSGEZOGEN
 62
     7
440
 33554687
370
    25
100
AcDbLine
 10
0.1665386352539062
 20
0.181904296875
 30
0.0
 11
0.166521728515625
 21
0.18327490234375
 31
0.0
  0
LINE
  5
283
330
92
100
AcDbEntity
  8
STANDARD
  6
AUSGEZOGEN
 62
     7
440
 33554687
370
    25
100
AcDbLine
 10
0.166521728515625
 20
0.18327490234375
 30
0.0
 11
0.1666317138671875
 21
0.1824119262695313
 31
0.0
  0
LINE
  5
284
330
92
100
AcDbEntity
  8
STANDARD
  6
AUSGEZOGEN
 62
     7
440
 33554687
370
    25
100
AcDbLine
 10
0.1666317138671875
 20
0.1824119262695313
 30
0.0
 11
0.1669954833984375
 21
0.1810242919921875
 31
0.0
  0
LINE
  5
285
330
92
100
AcDbEntity
  8
STANDARD
  6
AUSGEZOGEN
 62
     7
440
 33554687
370
    25
100
AcDbLine
 10
0.1669954833984375
 20
0.1810242919921875
 30
0.0
 11
0.167553955078125
 21
0.1799581909179687
 31
0.0
  0
LINE
  5
286
330
92
100
AcDbEntity
  8
STANDARD
  6
AUSGEZOGEN
 62
     7
440
 33554687
370
    25
100
AcDbLine
 10
0.167553955078125
 20
0.1799581909179687
 30
0.0
 11
0.1678331298828125
 21
0.1801359252929688
 31
0.0
  0
LINE
  5
287
330
92
100
AcDbEntity
  8
STANDARD
  6
AUSGEZOGEN
 62
     7
440
 33554687
370
    25
100
AcDbLine
 10
0.1678331298828125
 20
0.1801359252929688
 30
0.0
 11
0.1679431762695313
 21
0.18177734375
 31
0.0
  0
LINE
  5
288
330
92
100
AcDbEntity
  8
STANDARD
  6
AUSGEZOGEN
 62
     7
440
 33554687
370
    25
100
AcDbLine
 10
0.1679431762695313
 20
0.18177734375
 30
0.0
 11
0.1679600219726562
 21
0.1847387084960938
 31
0.0
  0
LINE
  5
289
330
92
100
AcDbEntity
  8
STANDARD
  6
AUSGEZOGEN
 62
     7
440
 33554687
370
    25
100
AcDbLine
 10
0.1679600219726562
 20
0.1847387084960938
 30
0.0
 11
0.168044677734375
 21
0.183943359375
 31
0.0
  0
LINE
  5
28A
330
92
100
AcDbEntity
  8
STANDARD
  6
AUSGEZOGEN
 62
     7
440
 33554687
370
    25
100
AcDbLine
 10
0.168044677734375
 20
0.183943359375
 30
0.0
 11
0.1683399047851563
 21
0.182381591796875
 31
0.0
  0
LINE
  5
28B
330
92
100
AcDbEntity
  8
STANDARD
  6
AUSGEZOGEN
 62
     7
440
 33554687
370
    25
100
AcDbLine
 10
0.1683399047851563
 20
0.182381591796875
 30
0.0
 11
0.1684259643554687
 21
0.181170166015625
 31
0.0
  0
LINE
  5
28C
330
92
100
AcDbEntity
  8
STANDARD
  6
AUSGEZOGEN
 62
     7
440
 33554687
370
    25
100
AcDbLine
 10
0.1684259643554687
 20
0.181170166015625
 30
0.0
 11
0.1686903686523437
 21
0.1802924194335938
 31
0.0
  0
LINE
  5
28D
330
92
100
AcDbEntity
  8
STANDARD
  6
AUSGEZOGEN
 62
     7
440
 33554687
370
    25
100
AcDbLine
 10
0.1686903686523437
 20
0.1802924194335938
 30
0.0
 11
0.1689230346679688
 21
0.1799221801757813
 31
0.0
  0
LINE
  5
28E
330
92
100
AcDbEntity
  8
STANDARD
  6
AUSGEZOGEN
 62
     7
440
 33554687
370
    25
100
AcDbLine
 10
0.1689230346679688
 20
0.1799221801757813
 30
0.0
 11
0.1697691650390625
 21
0.1799644775390625
 31
0.0
  0
LINE
  5
28F
330
92
100
AcDbEntity
  8
STANDARD
  6
AUSGEZOGEN
 62
     7
440
 33554687
370
    25
100
AcDbLine
 10
0.1697691650390625
 20
0.1799644775390625
 30
0.0
 11
0.1700441284179688
 21
0.1801232299804688
 31
0.0
  0
LINE
  5
290
330
92
100
AcDbEntity
  8
STANDARD
  6
AUSGEZOGEN
 62
     7
440
 33554687
370
    25
100
AcDbLine
 10
0.1700441284179688
 20
0.1801232299804688
 30
0.0
 11
0.1701016845703125
 21
0.1808124389648438
 31
0.0
  0
LINE
  5
291
330
92
100
AcDbEntity
  8
STANDARD
  6
AUSGEZOGEN
 62
     7
440
 33554687
370
    25
100
AcDbLine
 10
0.1701016845703125
 20
0.1808124389648438
 30
0.0
 11
0.1699662475585937
 21
0.18213232421875
 31
0.0
  0
LINE
  5
292
330
92
100
AcDbEntity
  8
STANDARD
  6
AUSGEZOGEN
 62
     7
440
 33554687
370
    25
100
AcDbLine
 10
0.1699662475585937
 20
0.18213232421875
 30
0.0
 11
0.1699829711914063
 21
0.1846949462890625
 31
0.0
  0
LINE
  5
293
330
92
100
AcDbEntity
  8
STANDARD
  6
AUSGEZOGEN
 62
     7
440
 33554687
370
    25
100
AcDbLine
 10
0.1699829711914063
 20
0.1846949462890625
 30
0.0
 11
0.1705223388671875
 21
0.1802529907226562
 31
0.0
  0
LINE
  5
294
330
92
100
AcDbEntity
  8
STANDARD
  6
AUSGEZOGEN
 62
     7
440
 33554687
370
    25
100
AcDbLine
 10
0.1705223388671875
 20
0.1802529907226562
 30
0.0
 11
0.170910400390625
 21
0.1799481201171875
 31
0.0
  0
LINE
  5
295
330
92
100
AcDbEntity
  8
STANDARD
  6
AUSGEZOGEN
 62
     7
440
 33554687
370
    25
100
AcDbLine
 10
0.170910400390625
 20
0.1799481201171875
 30
0.0
 11
0.1713435668945313
 21
0.1802459716796875
 31
0.0
  0
LINE
  5
296
330
92
100
AcDbEntity
  8
STANDARD
  6
AUSGEZOGEN
 62
     7
440
 33554687
370
    25
100
AcDbLine
 10
0.1713435668945313
 20
0.1802459716796875
 30
0.0
 11
0.1715330810546875
 21
0.1807738647460937
 31
0.0
  0
LINE
  5
297
330
92
100
AcDbEntity
  8
STANDARD
  6
AUSGEZOGEN
 62
     7
440
 33554687
370
    25
100
AcDbLine
 10
0.1715330810546875
 20
0.1807738647460937
 30
0.0
 11
0.1713164672851563
 21
0.1819584350585937
 31
0.0
  0
LINE
  5
298
330
92
100
AcDbEntity
  8
STANDARD
  6
AUSGEZOGEN
 62
     7
440
 33554687
370
    25
100
AcDbLine
 10
0.1713164672851563
 20
0.1819584350585937
 30
0.0
 11
0.171296142578125
 21
0.1832783813476563
 31
0.0
  0
LINE
  5
299
330
92
100
AcDbEntity
  8
STANDARD
  6
AUSGEZOGEN
 62
     7
440
 33554687
370
    25
100
AcDbLine
 10
0.171296142578125
 20
0.1832783813476563
 30
0.0
 11
0.17141796875
 21
0.1824254760742187
 31
0.0
  0
LINE
  5
29A
330
92
100
AcDbEntity
  8
STANDARD
  6
AUSGEZOGEN
 62
     7
440
 33554687
370
    25
100
AcDbLine
 10
0.17141796875
 20
0.1824254760742187
 30
0.0
 11
0.1718711547851562
 21
0.1808555908203125
 31
0.0
  0
LINE
  5
29B
330
92
100
AcDbEntity
  8
STANDARD
  6
AUSGEZOGEN
 62
     7
440
 33554687
370
    25
100
AcDbLine
 10
0.1718711547851562
 20
0.1808555908203125
 30
0.0
 11
0.1723471069335938
 21
0.1799697875976562
 31
0.0
  0
LINE
  5
29C
330
92
100
AcDbEntity
  8
PROJEKT
  6
AUSGEZOGEN
 62
     7
440
 33554687
370
    35
100
AcDbLine
 10
0.1212213745117188
 20
0.1489625244140625
 30
0.0
 11
0.12125830078125
 21
0.15022998046875
 31
0.0
  0
LINE
  5
29D
330
92
100
AcDbEntity
  8
PROJEKT
  6
AUSGEZOGEN
 62
     7
440
 33554687
370
    35
100
AcDbLine
 10
0.1207964477539063
 20
0.16262451171875
 30
0.0
 11
0.121407958984375
 21
0.1573244018554688
 31
0.0
  0
LINE
  5
29E
330
92
100
AcDbEntity
  8
PROJEKT
  6
AUSGEZOGEN
 62
     7
440
 33554687
370
    35
100
AcDbLine
 10
0.121407958984375
 20
0.1573244018554688
 30
0.0
 11
0.12125830078125
 21
0.15022998046875
 31
0.0
  0
LINE
  5
29F
330
92
100
AcDbEntity
  8
STANDARD
  6
AUSGEZOGEN
 62
     7
440
 33554687
370
    25
100
AcDbLine
 10
0.1873862915039063
 20
0.1799800415039063
 30
0.0
 11
0.1212213745117188
 21
0.1799800415039063
 31
0.0
  0
LINE
  5
2A0
330
92
100
AcDbEntity
  8
STANDARD
  6
AUSGEZOGEN
 62
     7
440
 33554687
370
    35
100
AcDbLine
 10
0.0479337158203125
 20
0.1479800415039063
 30
0.0
 11
0.1412213745117188
 21
0.1479800415039063
 31
0.0
  0
LINE
  5
2A1
330
92
100
AcDbEntity
  8
STANDARD
  6
AUSGEZOGEN
 62
     7
440
 33554687
370
    25
100
AcDbLine
 10
0.1212213745117188
 20
0.1659800415039062
 30
0.0
 11
0.1312213745117188
 21
0.1659800415039062
 31
0.0
  0
LINE
  5
2A2
330
92
100
AcDbEntity
  8
STANDARD
  6
AUSGEZOGEN
 62
     7
440
 33554687
370
    25
100
AcDbLine
 10
0.1372213745117188
 20
0.1479800415039063
 30
0.0
 11
0.1312213745117188
 21
0.1659800415039062
 31
0.0
  0
LINE
  5
2A3
330
92
100
AcDbEntity
  8
STANDARD
  6
AUSGEZOGEN
 62
     7
440
 33554687
370
    70
100
AcDbLine
 10
0.1212213745117188
 20
0.1819800415039063
 30
0.0
 11
0.1212213745117188
 21
0.1659800415039062
 31
0.0
  0
LINE
  5
2A4
330
92
100
AcDbEntity
  8
PROJEKT
  6
AUSGEZOGEN
 62
     7
440
 33554687
370
    35
100
AcDbLine
 10
0.1212213745117188
 20
0.1659800415039062
 30
0.0
 11
0.1207964477539063
 21
0.16262451171875
 31
0.0
  0
LINE
  5
2A5
330
92
100
AcDbEntity
  8
STANDARD
  6
AUSGEZOGEN
 62
     7
440
 33554687
370
    25
100
AcDbLine
 10
0.130215576171875
 20
0.1409913940429688
 30
0.0
 11
0.130215576171875
 21
0.1525571899414062
 31
0.0
  0
LINE
  5
2A6
330
92
100
AcDbEntity
  8
STANDARD
  6
AUSGEZOGEN
 62
     7
440
 33554687
370
    25
100
AcDbLine
 10
0.130215576171875
 20
0.1530072021484375
 30
0.0
 11
0.130215576171875
 21
0.1530072021484375
 31
0.0
  0
LINE
  5
2A7
330
92
100
AcDbEntity
  8
STANDARD
  6
AUSGEZOGEN
 62
     7
440
 33554687
370
    25
100
AcDbLine
 10
0.130215576171875
 20
0.1521072387695312
 30
0.0
 11
0.130215576171875
 21
0.1521072387695312
 31
0.0
  0
LINE
  5
2A8
330
92
100
AcDbEntity
  8
STANDARD
  6
AUSGEZOGEN
 62
     7
440
 33554687
370
    25
100
AcDbLine
 10
0.129765625
 20
0.1525571899414062
 30
0.0
 11
0.129765625
 21
0.1525571899414062
 31
0.0
  0
LINE
  5
2A9
330
92
100
AcDbEntity
  8
STANDARD
  6
AUSGEZOGEN
 62
     7
440
 33554687
370
    25
100
AcDbLine
 10
0.1306655883789062
 20
0.1525571899414062
 30
0.0
 11
0.1306655883789062
 21
0.1525571899414062
 31
0.0
  0
CIRCLE
  5
2AA
330
92
100
AcDbEntity
  8
STANDARD
  6
AUSGEZOGEN
 62
     7
440
 33554687
370
    25
100
AcDbCircle
 10
0.130215576171875
 20
0.1525571899414062
 30
0.0
 40
0.0004500000039116
  0
HATCH
  5
2AB
330
92
100
AcDbEntity
  8
STANDARD
  6
AUSGEZOGEN
 62
     7
440
 33554687
370
    25
100
AcDbHatch
 10
0.0
 20
0.0
 30
0.0
210
0.0
220
0.0
230
1.0
  2
SOLID
 70
     1
 71
     0
 91
        1
 92
        3
 72
     0
 73
     1
 93
        3
 10
0.1304406127929688
 20
0.152170166015625
 10
0.1299906005859375
 20
0.152170166015625
 10
0.130215576171875
 20
0.1521072387695312
 97
        0
 75
     0
 76
     1
 98
        0
  0
HATCH
  5
2AC
330
92
100
AcDbEntity
  8
STANDARD
  6
AUSGEZOGEN
 62
     7
440
 33554687
370
    25
100
AcDbHatch
 10
0.0
 20
0.0
 30
0.0
210
0.0
220
0.0
230
1.0
  2
SOLID
 70
     1
 71
     0
 91
        1
 92
        3
 72
     0
 73
     1
 93
        3
 10
0.1299906005859375
 20
0.152170166015625
 10
0.1304406127929688
 20
0.152170166015625
 10
0.1306026611328125
 20
0.1523322143554688
 97
        0
 75
     0
 76
     1
 98
        0
  0
HATCH
  5
2AD
330
92
100
AcDbEntity
  8
STANDARD
  6
AUSGEZOGEN
 62
     7
440
 33554687
370
    25
100
AcDbHatch
 10
0.0
 20
0.0
 30
0.0
210
0.0
220
0.0
230
1.0
  2
SOLID
 70
     1
 71
     0
 91
        1
 92
        3
 72
     0
 73
     1
 93
        3
 10
0.1299906005859375
 20
0.152170166015625
 10
0.1306026611328125
 20
0.1523322143554688
 10
0.12982861328125
 20
0.1523322143554688
 97
        0
 75
     0
 76
     1
 98
        0
  0
HATCH
  5
2AE
330
92
100
AcDbEntity
  8
STANDARD
  6
AUSGEZOGEN
 62
     7
440
 33554687
370
    25
100
AcDbHatch
 10
0.0
 20
0.0
 30
0.0
210
0.0
220
0.0
230
1.0
  2
SOLID
 70
     1
 71
     0
 91
        1
 92
        3
 72
     0
 73
     1
 93
        3
 10
0.12982861328125
 20
0.1523322143554688
 10
0.1306026611328125
 20
0.1523322143554688
 10
0.1306655883789062
 20
0.1525571899414062
 97
        0
 75
     0
 76
     1
 98
        0
  0
HATCH
  5
2AF
330
92
100
AcDbEntity
  8
STANDARD
  6
AUSGEZOGEN
 62
     7
440
 33554687
370
    25
100
AcDbHatch
 10
0.0
 20
0.0
 30
0.0
210
0.0
220
0.0
230
1.0
  2
SOLID
 70
     1
 71
     0
 91
        1
 92
        3
 72
     0
 73
     1
 93
        3
 10
0.12982861328125
 20
0.1523322143554688
 10
0.1306655883789062
 20
0.1525571899414062
 10
0.129765625
 20
0.1525571899414062
 97
        0
 75
     0
 76
     1
 98
        0
  0
HATCH
  5
2B0
330
92
100
AcDbEntity
  8
STANDARD
  6
AUSGEZOGEN
 62
     7
440
 33554687
370
    25
100
AcDbHatch
 10
0.0
 20
0.0
 30
0.0
210
0.0
220
0.0
230
1.0
  2
SOLID
 70
     1
 71
     0
 91
        1
 92
        3
 72
     0
 73
     1
 93
        3
 10
0.129765625
 20
0.1525571899414062
 10
0.1306655883789062
 20
0.1525571899414062
 10
0.1306026611328125
 20
0.1527822265625
 97
        0
 75
     0
 76
     1
 98
        0
  0
HATCH
  5
2B1
330
92
100
AcDbEntity
  8
STANDARD
  6
AUSGEZOGEN
 62
     7
440
 33554687
370
    25
100
AcDbHatch
 10
0.0
 20
0.0
 30
0.0
210
0.0
220
0.0
230
1.0
  2
SOLID
 70
     1
 71
     0
 91
        1
 92
        3
 72
     0
 73
     1
 93
        3
 10
0.129765625
 20
0.1525571899414062
 10
0.1306026611328125
 20
0.1527822265625
 10
0.12982861328125
 20
0.1527822265625
 97
        0
 75
     0
 76
     1
 98
        0
  0
HATCH
  5
2B2
330
92
100
AcDbEntity
  8
STANDARD
  6
AUSGEZOGEN
 62
     7
440
 33554687
370
    25
100
AcDbHatch
 10
0.0
 20
0.0
 30
0.0
210
0.0
220
0.0
230
1.0
  2
SOLID
 70
     1
 71
     0
 91
        1
 92
        3
 72
     0
 73
     1
 93
        3
 10
0.12982861328125
 20
0.1527822265625
 10
0.1306026611328125
 20
0.1527822265625
 10
0.1304406127929688
 20
0.1529442138671875
 97
        0
 75
     0
 76
     1
 98
        0
  0
HATCH
  5
2B3
330
92
100
AcDbEntity
  8
STANDARD
  6
AUSGEZOGEN
 62
     7
440
 33554687
370
    25
100
AcDbHatch
 10
0.0
 20
0.0
 30
0.0
210
0.0
220
0.0
230
1.0
  2
SOLID
 70
     1
 71
     0
 91
        1
 92
        3
 72
     0
 73
     1
 93
        3
 10
0.12982861328125
 20
0.1527822265625
 10
0.1304406127929688
 20
0.1529442138671875
 10
0.1299906005859375
 20
0.1529442138671875
 97
        0
 75
     0
 76
     1
 98
        0
  0
HATCH
  5
2B4
330
92
100
AcDbEntity
  8
STANDARD
  6
AUSGEZOGEN
 62
     7
440
 33554687
370
    25
100
AcDbHatch
 10
0.0
 20
0.0
 30
0.0
210
0.0
220
0.0
230
1.0
  2
SOLID
 70
     1
 71
     0
 91
        1
 92
        3
 72
     0
 73
     1
 93
        3
 10
0.1299906005859375
 20
0.1529442138671875
 10
0.1304406127929688
 20
0.1529442138671875
 10
0.130215576171875
 20
0.1530072021484375
 97
        0
 75
     0
 76
     1
 98
        0
  0
LINE
  5
2B5
330
92
100
AcDbEntity
  8
STANDARD
  6
AUSGEZOGEN
 62
     7
440
 33554687
370
    25
100
AcDbLine
 10
0.146215576171875
 20
0.1409913940429688
 30
0.0
 11
0.130215576171875
 21
0.1409913940429688
 31
0.0
  0
LINE
  5
2B6
330
92
100
AcDbEntity
  8
STANDARD
  6
AUSGEZOGEN
 62
     7
440
 33554687
370
    35
100
AcDbLine
 10
0.1412213745117188
 20
0.1479800415039063
 30
0.0
 11
0.1412213745117188
 21
0.0959800415039063
 31
0.0
  0
LINE
  5
2B7
330
92
100
AcDbEntity
  8
STANDARD
  6
AUSGEZOGEN
 62
     7
440
 33554687
370
    35
100
AcDbLine
 10
0.1412213745117188
 20
0.0959800415039063
 30
0.0
 11
0.0479337158203125
 21
0.0959800415039063
 31
0.0
  0
LINE
  5
2B8
330
92
100
AcDbEntity
  8
STANDARD
  6
AUSGEZOGEN
 62
     7
440
 33554687
370
    13
100
AcDbLine
 10
0.1412213745117188
 20
0.0959800415039063
 30
0.0
 11
0.1873862915039063
 21
0.0959800415039063
 31
0.0
  0
LINE
  5
2B9
330
92
100
AcDbEntity
  8
STANDARD
  6
AUSGEZOGEN
 62
     7
440
 33554687
370
    13
100
AcDbLine
 10
0.0479337158203125
 20
0.0799672241210937
 30
0.0
 11
0.1873862915039063
 21
0.0799672241210937
 31
0.0
  0
LINE
  5
2BA
330
92
100
AcDbEntity
  8
STANDARD
  6
AUSGEZOGEN
 62
     7
440
 33554687
370
    25
100
AcDbLine
 10
0.1040579833984375
 20
0.1389913940429688
 30
0.0
 11
0.1085111694335937
 21
0.1389913940429688
 31
0.0
  0
MTEXT
  5
2BB
330
92
100
AcDbEntity
  8
STANDARD
  6
AUSGEZOGEN
 62
     7
440
 33554687
370
    25
100
AcDbMText
 10
0.0535728759765625
 20
0.1537069091796875
 30
0.0
 40
0.002
 41
0.0248706489427337
 71
     7
 72
     5
  1
\W1.00;Asphalt oder Beton
  7
ARIAL
 73
     1
 44
1.0
  0
MTEXT
  5
2BC
330
92
100
AcDbEntity
  8
STANDARD
  6
AUSGEZOGEN
 62
     7
440
 33554687
370
    25
100
AcDbMText
 10
0.0691194458007812
 20
0.21349658203125
 30
0.0
 40
0.0025
 41
0.0265097285970864
 71
     7
 72
     5
  1
\W1.01;Kreiselinnenring
  7
ARIAL
 73
     1
 44
1.0
  0
MTEXT
  5
2BD
330
92
100
AcDbEntity
  8
STANDARD
  6
AUSGEZOGEN
 62
     7
440
 33554687
370
    25
100
AcDbMText
 10
0.0535728759765625
 20
0.1379735717773438
 30
0.0
 40
0.002
 41
0.0158374853326112
 71
     7
 72
     5
  1
\W1.00;Betondecke
  7
ARIAL
 73
     1
 44
1.0
  0
MTEXT
  5
2BE
330
92
100
AcDbEntity
  8
STANDARD
  6
AUSGEZOGEN
 62
     7
440
 33554687
370
    25
100
AcDbMText
 10
0.0792183227539063
 20
0.1380325927734375
 30
0.0
 40
0.002
 41
0.0253720580953953
 71
     7
 72
     5
  1
\W1.01;Stellstein aufkleben
  7
ARIAL
 11
0.9999999999999978
 21
6.664001972467299E-8
 31
0.0
 73
     1
 44
1.0
  0
MTEXT
  5
2BF
330
92
100
AcDbEntity
  8
STANDARD
  6
AUSGEZOGEN
 62
     7
440
 33554687
370
    25
100
AcDbMText
 10
0.1085361328125
 20
0.21349658203125
 30
0.0
 40
0.0025
 41
0.0198415143308508
 71
     7
 72
     5
  1
\W1.01;Kreiselauge
  7
ARIAL
 73
     1
 44
1.0
  0
LINE
  5
2C0
330
92
100
AcDbEntity
  8
STANDARD
  6
AUSGEZOGEN
 62
     7
440
 33554687
370
    25
100
AcDbLine
 10
0.087779541015625
 20
0.1610799560546875
 30
0.0
 11
0.0859795532226563
 21
0.1628800048828125
 31
0.0
  0
LINE
  5
2C1
330
92
100
AcDbEntity
  8
STANDARD
  6
AUSGEZOGEN
 62
     7
440
 33554687
370
    25
100
AcDbLine
 10
0.087779541015625
 20
0.1810799560546875
 30
0.0
 11
0.0859795532226563
 21
0.1828800048828125
 31
0.0
  0
LINE
  5
2C2
330
92
100
AcDbEntity
  8
STANDARD
  6
AUSGEZOGEN
 62
     7
440
 33554687
370
    25
100
AcDbLine
 10
0.0868795776367187
 20
0.1619800415039062
 30
0.0
 11
0.0853795166015625
 21
0.1619800415039062
 31
0.0
  0
LINE
  5
2C3
330
92
100
AcDbEntity
  8
STANDARD
  6
AUSGEZOGEN
 62
     7
440
 33554687
370
    25
100
AcDbLine
 10
0.0868795776367187
 20
0.1619800415039062
 30
0.0
 11
0.0883795166015625
 21
0.1619800415039062
 31
0.0
  0
LINE
  5
2C4
330
92
100
AcDbEntity
  8
STANDARD
  6
AUSGEZOGEN
 62
     7
440
 33554687
370
    25
100
AcDbLine
 10
0.0868795776367187
 20
0.1819800415039063
 30
0.0
 11
0.0853795166015625
 21
0.1819800415039063
 31
0.0
  0
LINE
  5
2C5
330
92
100
AcDbEntity
  8
STANDARD
  6
AUSGEZOGEN
 62
     7
440
 33554687
370
    25
100
AcDbLine
 10
0.0868795776367187
 20
0.1819800415039063
 30
0.0
 11
0.0883795166015625
 21
0.1819800415039063
 31
0.0
  0
LINE
  5
2C6
330
92
100
AcDbEntity
  8
STANDARD
  6
AUSGEZOGEN
 62
     7
440
 33554687
370
    25
100
AcDbLine
 10
0.0868795776367187
 20
0.1619800415039062
 30
0.0
 11
0.0868795776367187
 21
0.1619800415039062
 31
0.0
  0
LINE
  5
2C7
330
92
100
AcDbEntity
  8
STANDARD
  6
AUSGEZOGEN
 62
     7
440
 33554687
370
    25
100
AcDbLine
 10
0.0868795776367187
 20
0.1819800415039063
 30
0.0
 11
0.0959568481445312
 21
0.1819800415039063
 31
0.0
  0
LINE
  5
2C8
330
92
100
AcDbEntity
  8
STANDARD
  6
AUSGEZOGEN
 62
     7
440
 33554687
370
    25
100
AcDbLine
 10
0.0868795776367187
 20
0.1619800415039062
 30
0.0
 11
0.0868795776367187
 21
0.16047998046875
 31
0.0
  0
LINE
  5
2C9
330
92
100
AcDbEntity
  8
STANDARD
  6
AUSGEZOGEN
 62
     7
440
 33554687
370
    25
100
AcDbLine
 10
0.0868795776367187
 20
0.1819800415039063
 30
0.0
 11
0.0868795776367187
 21
0.18347998046875
 31
0.0
  0
MTEXT
  5
2CA
330
92
100
AcDbEntity
  8
STANDARD
  6
AUSGEZOGEN
 62
     7
440
 33554687
370
    25
100
AcDbMText
 10
0.085845458984375
 20
0.1704929809570312
 30
0.0
 40
0.002
 41
0.0040862935928629
 71
     7
 72
     5
  1
\W0.95;10
  7
ARIAL
 11
-4.371139000186241E-8
 21
0.9999999999999989
 31
0.0
 73
     1
 44
1.0
  0
LINE
  5
2CB
330
92
100
AcDbEntity
  8
STANDARD
  6
AUSGEZOGEN
 62
     7
440
 33554687
370
    25
100
AcDbLine
 10
0.0868795776367187
 20
0.1619800415039062
 30
0.0
 11
0.0868795776367187
 21
0.170301075716293
 31
0.0
  0
LINE
  5
2CC
330
92
100
AcDbEntity
  8
STANDARD
  6
AUSGEZOGEN
 62
     7
440
 33554687
370
    25
100
AcDbLine
 10
0.0868795776367187
 20
0.170301075716293
 30
0.0
 11
0.0868795776367187
 21
0.170301075716293
 31
0.0
  0
LINE
  5
2CD
330
92
100
AcDbEntity
  8
STANDARD
  6
AUSGEZOGEN
 62
     7
440
 33554687
370
    25
100
AcDbLine
 10
0.0868795776367187
 20
0.170301075716293
 30
0.0
 11
0.0868795776367187
 21
0.1819800415039063
 31
0.0
  0
LINE
  5
2CE
330
92
100
AcDbEntity
  8
STANDARD
  6
AUSGEZOGEN
 62
     7
440
 33554687
370
    25
100
AcDbLine
 10
0.1609536743164063
 20
0.1470762329101563
 30
0.0
 11
0.1591536865234375
 21
0.148876220703125
 31
0.0
  0
LINE
  5
2CF
330
92
100
AcDbEntity
  8
STANDARD
  6
AUSGEZOGEN
 62
     7
440
 33554687
370
    25
100
AcDbLine
 10
0.1609536743164063
 20
0.1810799560546875
 30
0.0
 11
0.1591536865234375
 21
0.1828800048828125
 31
0.0
  0
LINE
  5
2D0
330
92
100
AcDbEntity
  8
STANDARD
  6
AUSGEZOGEN
 62
     7
440
 33554687
370
    25
100
AcDbLine
 10
0.1600536499023437
 20
0.1479761962890625
 30
0.0
 11
0.1585537109375
 21
0.1479761962890625
 31
0.0
  0
LINE
  5
2D1
330
92
100
AcDbEntity
  8
STANDARD
  6
AUSGEZOGEN
 62
     7
440
 33554687
370
    25
100
AcDbLine
 10
0.1600536499023437
 20
0.1479761962890625
 30
0.0
 11
0.1615537109375
 21
0.1479761962890625
 31
0.0
  0
LINE
  5
2D2
330
92
100
AcDbEntity
  8
STANDARD
  6
AUSGEZOGEN
 62
     7
440
 33554687
370
    25
100
AcDbLine
 10
0.1600536499023437
 20
0.1819800415039063
 30
0.0
 11
0.1585537109375
 21
0.1819800415039063
 31
0.0
  0
LINE
  5
2D3
330
92
100
AcDbEntity
  8
STANDARD
  6
AUSGEZOGEN
 62
     7
440
 33554687
370
    25
100
AcDbLine
 10
0.1600536499023437
 20
0.1819800415039063
 30
0.0
 11
0.1615537109375
 21
0.1819800415039063
 31
0.0
  0
LINE
  5
2D4
330
92
100
AcDbEntity
  8
STANDARD
  6
AUSGEZOGEN
 62
     7
440
 33554687
370
    25
100
AcDbLine
 10
0.1600536499023437
 20
0.1479761962890625
 30
0.0
 11
0.1468847045898438
 21
0.1479761962890625
 31
0.0
  0
LINE
  5
2D5
330
92
100
AcDbEntity
  8
STANDARD
  6
AUSGEZOGEN
 62
     7
440
 33554687
370
    25
100
AcDbLine
 10
0.1600536499023437
 20
0.1819800415039063
 30
0.0
 11
0.1262213745117187
 21
0.1819800415039063
 31
0.0
  0
LINE
  5
2D6
330
92
100
AcDbEntity
  8
STANDARD
  6
AUSGEZOGEN
 62
     7
440
 33554687
370
    25
100
AcDbLine
 10
0.1600536499023437
 20
0.1479761962890625
 30
0.0
 11
0.1600536499023437
 21
0.1464761352539063
 31
0.0
  0
LINE
  5
2D7
330
92
100
AcDbEntity
  8
STANDARD
  6
AUSGEZOGEN
 62
     7
440
 33554687
370
    25
100
AcDbLine
 10
0.1600536499023437
 20
0.1819800415039063
 30
0.0
 11
0.1600536499023437
 21
0.18347998046875
 31
0.0
  0
MTEXT
  5
2D8
330
92
100
AcDbEntity
  8
STANDARD
  6
AUSGEZOGEN
 62
     7
440
 33554687
370
    25
100
AcDbMText
 10
0.1590536499023437
 20
0.1634876098632813
 30
0.0
 40
0.002
 41
0.0040862935928629
 71
     7
 72
     5
  1
\W0.95;17
  7
ARIAL
 11
-4.371139000186241E-8
 21
0.9999999999999989
 31
0.0
 73
     1
 44
1.0
  0
LINE
  5
2D9
330
92
100
AcDbEntity
  8
STANDARD
  6
AUSGEZOGEN
 62
     7
440
 33554687
370
    25
100
AcDbLine
 10
0.1600536499023437
 20
0.1479761962890625
 30
0.0
 11
0.1600536499023437
 21
0.1641044438987668
 31
0.0
  0
LINE
  5
2DA
330
92
100
AcDbEntity
  8
STANDARD
  6
AUSGEZOGEN
 62
     7
440
 33554687
370
    25
100
AcDbLine
 10
0.1600536499023437
 20
0.1641044438987668
 30
0.0
 11
0.1600536499023437
 21
0.1641044438987668
 31
0.0
  0
LINE
  5
2DB
330
92
100
AcDbEntity
  8
STANDARD
  6
AUSGEZOGEN
 62
     7
440
 33554687
370
    25
100
AcDbLine
 10
0.1600536499023437
 20
0.1641044438987668
 30
0.0
 11
0.1600536499023437
 21
0.1819800415039063
 31
0.0
  0
LINE
  5
2DC
330
92
100
AcDbEntity
  8
STANDARD
  6
AUSGEZOGEN
 62
     7
440
 33554687
370
    25
100
AcDbLine
 10
0.1519536743164062
 20
0.1470799560546875
 30
0.0
 11
0.1501536865234375
 21
0.1488800048828125
 31
0.0
  0
LINE
  5
2DD
330
92
100
AcDbEntity
  8
STANDARD
  6
AUSGEZOGEN
 62
     7
440
 33554687
370
    25
100
AcDbLine
 10
0.1519536743164062
 20
0.1650799560546875
 30
0.0
 11
0.1501536865234375
 21
0.1668800048828125
 31
0.0
  0
LINE
  5
2DE
330
92
100
AcDbEntity
  8
STANDARD
  6
AUSGEZOGEN
 62
     7
440
 33554687
370
    25
100
AcDbLine
 10
0.1519536743164062
 20
0.1810799560546875
 30
0.0
 11
0.1501536865234375
 21
0.1828800048828125
 31
0.0
  0
LINE
  5
2DF
330
92
100
AcDbEntity
  8
STANDARD
  6
AUSGEZOGEN
 62
     7
440
 33554687
370
    25
100
AcDbLine
 10
0.1510536499023437
 20
0.1479800415039063
 30
0.0
 11
0.1495537109375
 21
0.1479800415039063
 31
0.0
  0
LINE
  5
2E0
330
92
100
AcDbEntity
  8
STANDARD
  6
AUSGEZOGEN
 62
     7
440
 33554687
370
    25
100
AcDbLine
 10
0.1510536499023437
 20
0.1479800415039063
 30
0.0
 11
0.1525537109375
 21
0.1479800415039063
 31
0.0
  0
LINE
  5
2E1
330
92
100
AcDbEntity
  8
STANDARD
  6
AUSGEZOGEN
 62
     7
440
 33554687
370
    25
100
AcDbLine
 10
0.1510536499023437
 20
0.1659800415039062
 30
0.0
 11
0.1495537109375
 21
0.1659800415039062
 31
0.0
  0
LINE
  5
2E2
330
92
100
AcDbEntity
  8
STANDARD
  6
AUSGEZOGEN
 62
     7
440
 33554687
370
    25
100
AcDbLine
 10
0.1510536499023437
 20
0.1659800415039062
 30
0.0
 11
0.1525537109375
 21
0.1659800415039062
 31
0.0
  0
LINE
  5
2E3
330
92
100
AcDbEntity
  8
STANDARD
  6
AUSGEZOGEN
 62
     7
440
 33554687
370
    25
100
AcDbLine
 10
0.1510536499023437
 20
0.1819800415039063
 30
0.0
 11
0.1495537109375
 21
0.1819800415039063
 31
0.0
  0
LINE
  5
2E4
330
92
100
AcDbEntity
  8
STANDARD
  6
AUSGEZOGEN
 62
     7
440
 33554687
370
    25
100
AcDbLine
 10
0.1510536499023437
 20
0.1819800415039063
 30
0.0
 11
0.1525537109375
 21
0.1819800415039063
 31
0.0
  0
LINE
  5
2E5
330
92
100
AcDbEntity
  8
STANDARD
  6
AUSGEZOGEN
 62
     7
440
 33554687
370
    25
100
AcDbLine
 10
0.1510536499023437
 20
0.1479800415039063
 30
0.0
 11
0.1510536499023437
 21
0.1479800415039063
 31
0.0
  0
LINE
  5
2E6
330
92
100
AcDbEntity
  8
STANDARD
  6
AUSGEZOGEN
 62
     7
440
 33554687
370
    25
100
AcDbLine
 10
0.1510536499023437
 20
0.1659800415039062
 30
0.0
 11
0.1503536987304687
 21
0.1659800415039062
 31
0.0
  0
LINE
  5
2E7
330
92
100
AcDbEntity
  8
STANDARD
  6
AUSGEZOGEN
 62
     7
440
 33554687
370
    25
100
AcDbLine
 10
0.1503536987304687
 20
0.1659800415039062
 30
0.0
 11
0.1503536987304687
 21
0.1659800415039062
 31
0.0
  0
LINE
  5
2E8
330
92
100
AcDbEntity
  8
STANDARD
  6
AUSGEZOGEN
 62
     7
440
 33554687
370
    25
100
AcDbLine
 10
0.1503536987304687
 20
0.1659800415039062
 30
0.0
 11
0.1370536499023438
 21
0.1659800415039062
 31
0.0
  0
LINE
  5
2E9
330
92
100
AcDbEntity
  8
STANDARD
  6
AUSGEZOGEN
 62
     7
440
 33554687
370
    25
100
AcDbLine
 10
0.1510536499023437
 20
0.1819800415039063
 30
0.0
 11
0.1510536499023437
 21
0.1819800415039063
 31
0.0
  0
LINE
  5
2EA
330
92
100
AcDbEntity
  8
STANDARD
  6
AUSGEZOGEN
 62
     7
440
 33554687
370
    25
100
AcDbLine
 10
0.1510536499023437
 20
0.1479800415039063
 30
0.0
 11
0.1510536499023437
 21
0.14647998046875
 31
0.0
  0
LINE
  5
2EB
330
92
100
AcDbEntity
  8
STANDARD
  6
AUSGEZOGEN
 62
     7
440
 33554687
370
    25
100
AcDbLine
 10
0.1510536499023437
 20
0.1819800415039063
 30
0.0
 11
0.1510536499023437
 21
0.18347998046875
 31
0.0
  0
MTEXT
  5
2EC
330
92
100
AcDbEntity
  8
STANDARD
  6
AUSGEZOGEN
 62
     7
440
 33554687
370
    25
100
AcDbMText
 10
0.15001953125
 20
0.156264404296875
 30
0.0
 40
0.002
 41
0.0025569742941424
 71
     7
 72
     5
  1
\W0.99;9
  7
ARIAL
 11
-4.371139000186241E-8
 21
0.9999999999999989
 31
0.0
 73
     1
 44
1.0
  0
MTEXT
  5
2ED
330
92
100
AcDbEntity
  8
STANDARD
  6
AUSGEZOGEN
 62
     7
440
 33554687
370
    25
100
AcDbMText
 10
0.15001953125
 20
0.173264404296875
 30
0.0
 40
0.002
 41
0.0025569742941425
 71
     7
 72
     5
  1
\W0.99;8
  7
ARIAL
 11
-4.371139000186241E-8
 21
0.9999999999999989
 31
0.0
 73
     1
 44
1.0
  0
LINE
  5
2EE
330
92
100
AcDbEntity
  8
STANDARD
  6
AUSGEZOGEN
 62
     7
440
 33554687
370
    25
100
AcDbLine
 10
0.1510536499023437
 20
0.1479800415039063
 30
0.0
 11
0.1510536499023437
 21
0.1567916854774456
 31
0.0
  0
LINE
  5
2EF
330
92
100
AcDbEntity
  8
STANDARD
  6
AUSGEZOGEN
 62
     7
440
 33554687
370
    25
100
AcDbLine
 10
0.1510536499023437
 20
0.1567916854774456
 30
0.0
 11
0.1510536499023437
 21
0.1567916854774456
 31
0.0
  0
LINE
  5
2F0
330
92
100
AcDbEntity
  8
STANDARD
  6
AUSGEZOGEN
 62
     7
440
 33554687
370
    25
100
AcDbLine
 10
0.1510536499023437
 20
0.1567916854774456
 30
0.0
 11
0.1510536499023437
 21
0.1659800415039062
 31
0.0
  0
LINE
  5
2F1
330
92
100
AcDbEntity
  8
STANDARD
  6
AUSGEZOGEN
 62
     7
440
 33554687
370
    25
100
AcDbLine
 10
0.1510536499023437
 20
0.1659800415039062
 30
0.0
 11
0.1510536499023437
 21
0.1819800415039063
 31
0.0
  0
LINE
  5
2F2
330
92
100
AcDbEntity
  8
STANDARD
  6
AUSGEZOGEN
 62
     7
440
 33554687
370
    25
100
AcDbLine
 10
0.1203213500976563
 20
0.1549229125976563
 30
0.0
 11
0.122121337890625
 21
0.156722900390625
 31
0.0
  0
LINE
  5
2F3
330
92
100
AcDbEntity
  8
STANDARD
  6
AUSGEZOGEN
 62
     7
440
 33554687
370
    25
100
AcDbLine
 10
0.1403213500976563
 20
0.1549229125976563
 30
0.0
 11
0.142121337890625
 21
0.156722900390625
 31
0.0
  0
LINE
  5
2F4
330
92
100
AcDbEntity
  8
STANDARD
  6
AUSGEZOGEN
 62
     7
440
 33554687
370
    25
100
AcDbLine
 10
0.1212213745117188
 20
0.1558229370117188
 30
0.0
 11
0.1212213745117188
 21
0.1573229370117188
 31
0.0
  0
LINE
  5
2F5
330
92
100
AcDbEntity
  8
STANDARD
  6
AUSGEZOGEN
 62
     7
440
 33554687
370
    25
100
AcDbLine
 10
0.1212213745117188
 20
0.1558229370117188
 30
0.0
 11
0.1212213745117188
 21
0.1543229370117188
 31
0.0
  0
LINE
  5
2F6
330
92
100
AcDbEntity
  8
STANDARD
  6
AUSGEZOGEN
 62
     7
440
 33554687
370
    25
100
AcDbLine
 10
0.1412213745117188
 20
0.1558229370117188
 30
0.0
 11
0.1412213745117188
 21
0.1573229370117188
 31
0.0
  0
LINE
  5
2F7
330
92
100
AcDbEntity
  8
STANDARD
  6
AUSGEZOGEN
 62
     7
440
 33554687
370
    25
100
AcDbLine
 10
0.1412213745117188
 20
0.1558229370117188
 30
0.0
 11
0.1412213745117188
 21
0.1543229370117188
 31
0.0
  0
LINE
  5
2F8
330
92
100
AcDbEntity
  8
STANDARD
  6
AUSGEZOGEN
 62
     7
440
 33554687
370
    25
100
AcDbLine
 10
0.1212213745117188
 20
0.1558229370117188
 30
0.0
 11
0.1212213745117188
 21
0.1558229370117188
 31
0.0
  0
LINE
  5
2F9
330
92
100
AcDbEntity
  8
STANDARD
  6
AUSGEZOGEN
 62
     7
440
 33554687
370
    25
100
AcDbLine
 10
0.1412213745117188
 20
0.1558229370117188
 30
0.0
 11
0.1412213745117188
 21
0.1518229370117188
 31
0.0
  0
LINE
  5
2FA
330
92
100
AcDbEntity
  8
STANDARD
  6
AUSGEZOGEN
 62
     7
440
 33554687
370
    25
100
AcDbLine
 10
0.1212213745117188
 20
0.1558229370117188
 30
0.0
 11
0.1197213745117188
 21
0.1558229370117188
 31
0.0
  0
LINE
  5
2FB
330
92
100
AcDbEntity
  8
STANDARD
  6
AUSGEZOGEN
 62
     7
440
 33554687
370
    25
100
AcDbLine
 10
0.1412213745117188
 20
0.1558229370117188
 30
0.0
 11
0.1427213745117188
 21
0.1558229370117188
 31
0.0
  0
MTEXT
  5
2FC
330
92
100
AcDbEntity
  8
STANDARD
  6
AUSGEZOGEN
 62
     7
440
 33554687
370
    25
100
AcDbMText
 10
0.1289940795898437
 20
0.1568506469726562
 30
0.0
 40
0.002
 41
0.0040862935928629
 71
     7
 72
     5
  1
\W0.95;10
  7
ARIAL
 73
     1
 44
1.0
  0
LINE
  5
2FD
330
92
100
AcDbEntity
  8
STANDARD
  6
AUSGEZOGEN
 62
     7
440
 33554687
370
    25
100
AcDbLine
 10
0.1212213745117188
 20
0.1558229370117188
 30
0.0
 11
0.1412213745117188
 21
0.1558229370117188
 31
0.0
  0
LINE
  5
2FE
330
92
100
AcDbEntity
  8
STANDARD
  6
AUSGEZOGEN
 62
     7
440
 33554687
370
    25
100
AcDbLine
 10
0.1003213500976562
 20
0.1906439208984375
 30
0.0
 11
0.102121337890625
 21
0.1924440307617188
 31
0.0
  0
LINE
  5
2FF
330
92
100
AcDbEntity
  8
STANDARD
  6
AUSGEZOGEN
 62
     7
440
 33554687
370
    25
100
AcDbLine
 10
0.1203213500976563
 20
0.1906439208984375
 30
0.0
 11
0.122121337890625
 21
0.1924440307617188
 31
0.0
  0
LINE
  5
300
330
92
100
AcDbEntity
  8
STANDARD
  6
AUSGEZOGEN
 62
     7
440
 33554687
370
    25
100
AcDbLine
 10
0.1012213134765625
 20
0.1915440063476563
 30
0.0
 11
0.1012213134765625
 21
0.1930440063476563
 31
0.0
  0
LINE
  5
301
330
92
100
AcDbEntity
  8
STANDARD
  6
AUSGEZOGEN
 62
     7
440
 33554687
370
    25
100
AcDbLine
 10
0.1012213134765625
 20
0.1915440063476563
 30
0.0
 11
0.1012213134765625
 21
0.1900440063476563
 31
0.0
  0
LINE
  5
302
330
92
100
AcDbEntity
  8
STANDARD
  6
AUSGEZOGEN
 62
     7
440
 33554687
370
    25
100
AcDbLine
 10
0.1212213745117188
 20
0.1915440063476563
 30
0.0
 11
0.1212213745117188
 21
0.1930440063476563
 31
0.0
  0
LINE
  5
303
330
92
100
AcDbEntity
  8
STANDARD
  6
AUSGEZOGEN
 62
     7
440
 33554687
370
    25
100
AcDbLine
 10
0.1212213745117188
 20
0.1915440063476563
 30
0.0
 11
0.1212213745117188
 21
0.1900440063476563
 31
0.0
  0
LINE
  5
304
330
92
100
AcDbEntity
  8
STANDARD
  6
AUSGEZOGEN
 62
     7
440
 33554687
370
    25
100
AcDbLine
 10
0.1012213134765625
 20
0.1915440063476563
 30
0.0
 11
0.1012213134765625
 21
0.1869117431640625
 31
0.0
  0
LINE
  5
305
330
92
100
AcDbEntity
  8
STANDARD
  6
AUSGEZOGEN
 62
     7
440
 33554687
370
    25
100
AcDbLine
 10
0.1212213745117188
 20
0.1915440063476563
 30
0.0
 11
0.1212213745117188
 21
0.1869117431640625
 31
0.0
  0
LINE
  5
306
330
92
100
AcDbEntity
  8
STANDARD
  6
AUSGEZOGEN
 62
     7
440
 33554687
370
    25
100
AcDbLine
 10
0.1012213134765625
 20
0.1915440063476563
 30
0.0
 11
0.0997213745117188
 21
0.1915440063476563
 31
0.0
  0
LINE
  5
307
330
92
100
AcDbEntity
  8
STANDARD
  6
AUSGEZOGEN
 62
     7
440
 33554687
370
    25
100
AcDbLine
 10
0.1212213745117188
 20
0.1915440063476563
 30
0.0
 11
0.1227213745117188
 21
0.1915440063476563
 31
0.0
  0
MTEXT
  5
308
330
92
100
AcDbEntity
  8
STANDARD
  6
AUSGEZOGEN
 62
     7
440
 33554687
370
    25
100
AcDbMText
 10
0.109734375
 20
0.192578125
 30
0.0
 40
0.002
 41
0.0040862935928629
 71
     7
 72
     5
  1
\W0.95;10
  7
ARIAL
 73
     1
 44
1.0
  0
LINE
  5
309
330
92
100
AcDbEntity
  8
STANDARD
  6
AUSGEZOGEN
 62
     7
440
 33554687
370
    25
100
AcDbLine
 10
0.1012213134765625
 20
0.1915440063476563
 30
0.0
 11
0.1212213745117188
 21
0.1915440063476563
 31
0.0
  0
LINE
  5
30A
330
92
100
AcDbEntity
  8
STANDARD
  6
AUSGEZOGEN
 62
     7
440
 33554687
370
    25
100
AcDbLine
 10
0.1203213500976563
 20
0.1709625244140625
 30
0.0
 11
0.122121337890625
 21
0.1727626342773438
 31
0.0
  0
LINE
  5
30B
330
92
100
AcDbEntity
  8
STANDARD
  6
AUSGEZOGEN
 62
     7
440
 33554687
370
    25
100
AcDbLine
 10
0.1303213500976562
 20
0.1709625244140625
 30
0.0
 11
0.132121337890625
 21
0.1727626342773438
 31
0.0
  0
LINE
  5
30C
330
92
100
AcDbEntity
  8
STANDARD
  6
AUSGEZOGEN
 62
     7
440
 33554687
370
    25
100
AcDbLine
 10
0.1363213500976563
 20
0.1709625244140625
 30
0.0
 11
0.138121337890625
 21
0.1727626342773438
 31
0.0
  0
LINE
  5
30D
330
92
100
AcDbEntity
  8
STANDARD
  6
AUSGEZOGEN
 62
     7
440
 33554687
370
    25
100
AcDbLine
 10
0.1403213500976563
 20
0.1709625244140625
 30
0.0
 11
0.142121337890625
 21
0.1727626342773438
 31
0.0
  0
LINE
  5
30E
330
92
100
AcDbEntity
  8
STANDARD
  6
AUSGEZOGEN
 62
     7
440
 33554687
370
    25
100
AcDbLine
 10
0.1212213745117188
 20
0.171862548828125
 30
0.0
 11
0.1212213745117188
 21
0.173362548828125
 31
0.0
  0
LINE
  5
30F
330
92
100
AcDbEntity
  8
STANDARD
  6
AUSGEZOGEN
 62
     7
440
 33554687
370
    25
100
AcDbLine
 10
0.1212213745117188
 20
0.171862548828125
 30
0.0
 11
0.1212213745117188
 21
0.170362548828125
 31
0.0
  0
LINE
  5
310
330
92
100
AcDbEntity
  8
STANDARD
  6
AUSGEZOGEN
 62
     7
440
 33554687
370
    25
100
AcDbLine
 10
0.1312213745117188
 20
0.171862548828125
 30
0.0
 11
0.1312213745117188
 21
0.173362548828125
 31
0.0
  0
LINE
  5
311
330
92
100
AcDbEntity
  8
STANDARD
  6
AUSGEZOGEN
 62
     7
440
 33554687
370
    25
100
AcDbLine
 10
0.1312213745117188
 20
0.171862548828125
 30
0.0
 11
0.1312213745117188
 21
0.170362548828125
 31
0.0
  0
LINE
  5
312
330
92
100
AcDbEntity
  8
STANDARD
  6
AUSGEZOGEN
 62
     7
440
 33554687
370
    25
100
AcDbLine
 10
0.1372213745117188
 20
0.171862548828125
 30
0.0
 11
0.1372213745117188
 21
0.173362548828125
 31
0.0
  0
LINE
  5
313
330
92
100
AcDbEntity
  8
STANDARD
  6
AUSGEZOGEN
 62
     7
440
 33554687
370
    25
100
AcDbLine
 10
0.1372213745117188
 20
0.171862548828125
 30
0.0
 11
0.1372213745117188
 21
0.170362548828125
 31
0.0
  0
LINE
  5
314
330
92
100
AcDbEntity
  8
STANDARD
  6
AUSGEZOGEN
 62
     7
440
 33554687
370
    25
100
AcDbLine
 10
0.1412213745117188
 20
0.171862548828125
 30
0.0
 11
0.1412213745117188
 21
0.173362548828125
 31
0.0
  0
LINE
  5
315
330
92
100
AcDbEntity
  8
STANDARD
  6
AUSGEZOGEN
 62
     7
440
 33554687
370
    25
100
AcDbLine
 10
0.1412213745117188
 20
0.171862548828125
 30
0.0
 11
0.1412213745117188
 21
0.170362548828125
 31
0.0
  0
LINE
  5
316
330
92
100
AcDbEntity
  8
STANDARD
  6
AUSGEZOGEN
 62
     7
440
 33554687
370
    25
100
AcDbLine
 10
0.1212213745117188
 20
0.171862548828125
 30
0.0
 11
0.1212213745117188
 21
0.171862548828125
 31
0.0
  0
LINE
  5
317
330
92
100
AcDbEntity
  8
STANDARD
  6
AUSGEZOGEN
 62
     7
440
 33554687
370
    25
100
AcDbLine
 10
0.1312213745117188
 20
0.171862548828125
 30
0.0
 11
0.1312213745117188
 21
0.1692767944335938
 31
0.0
  0
LINE
  5
318
330
92
100
AcDbEntity
  8
STANDARD
  6
AUSGEZOGEN
 62
     7
440
 33554687
370
    25
100
AcDbLine
 10
0.1372213745117188
 20
0.171862548828125
 30
0.0
 11
0.1372213745117188
 21
0.1692767944335938
 31
0.0
  0
LINE
  5
319
330
92
100
AcDbEntity
  8
STANDARD
  6
AUSGEZOGEN
 62
     7
440
 33554687
370
    25
100
AcDbLine
 10
0.1412213745117188
 20
0.171862548828125
 30
0.0
 11
0.1412213745117188
 21
0.1692767944335938
 31
0.0
  0
LINE
  5
31A
330
92
100
AcDbEntity
  8
STANDARD
  6
AUSGEZOGEN
 62
     7
440
 33554687
370
    25
100
AcDbLine
 10
0.1212213745117188
 20
0.171862548828125
 30
0.0
 11
0.1197213745117188
 21
0.171862548828125
 31
0.0
  0
LINE
  5
31B
330
92
100
AcDbEntity
  8
STANDARD
  6
AUSGEZOGEN
 62
     7
440
 33554687
370
    25
100
AcDbLine
 10
0.1412213745117188
 20
0.171862548828125
 30
0.0
 11
0.1427213745117188
 21
0.171862548828125
 31
0.0
  0
MTEXT
  5
31C
330
92
100
AcDbEntity
  8
STANDARD
  6
AUSGEZOGEN
 62
     7
440
 33554687
370
    25
100
AcDbMText
 10
0.1255003051757813
 20
0.1728966064453125
 30
0.0
 40
0.002
 41
0.0025569742941424
 71
     7
 72
     5
  1
\W0.99;5
  7
ARIAL
 73
     1
 44
1.0
  0
MTEXT
  5
31D
330
92
100
AcDbEntity
  8
STANDARD
  6
AUSGEZOGEN
 62
     7
440
 33554687
370
    25
100
AcDbMText
 10
0.1335078735351563
 20
0.1728980712890625
 30
0.0
 40
0.002
 41
0.0025569742941424
 71
     7
 72
     5
  1
\W0.99;3
  7
ARIAL
 73
     1
 44
1.0
  0
MTEXT
  5
31E
330
92
100
AcDbEntity
  8
STANDARD
  6
AUSGEZOGEN
 62
     7
440
 33554687
370
    25
100
AcDbMText
 10
0.13851806640625
 20
0.172862548828125
 30
0.0
 40
0.002
 41
0.0025569742941424
 71
     7
 72
     5
  1
\W0.99;2
  7
ARIAL
 73
     1
 44
1.0
  0
LINE
  5
31F
330
92
100
AcDbEntity
  8
STANDARD
  6
AUSGEZOGEN
 62
     7
440
 33554687
370
    25
100
AcDbLine
 10
0.1212213745117188
 20
0.171862548828125
 30
0.0
 11
0.1312213745117188
 21
0.171862548828125
 31
0.0
  0
LINE
  5
320
330
92
100
AcDbEntity
  8
STANDARD
  6
AUSGEZOGEN
 62
     7
440
 33554687
370
    25
100
AcDbLine
 10
0.1312213745117188
 20
0.171862548828125
 30
0.0
 11
0.1372213745117188
 21
0.171862548828125
 31
0.0
  0
LINE
  5
321
330
92
100
AcDbEntity
  8
STANDARD
  6
AUSGEZOGEN
 62
     7
440
 33554687
370
    25
100
AcDbLine
 10
0.1372213745117188
 20
0.171862548828125
 30
0.0
 11
0.1412213745117188
 21
0.171862548828125
 31
0.0
  0
MTEXT
  5
322
330
92
100
AcDbEntity
  8
STANDARD
  6
AUSGEZOGEN
 62
     7
440
 33554687
370
    25
100
AcDbMText
 10
0.1483861083984375
 20
0.1414569702148437
 30
0.0
 40
0.002
 41
0.0189365406131126
 71
     7
 72
     5
  1
\W1.00;Splittbeton 4/8
  7
ARIAL
 73
     1
 44
1.0
  0
MTEXT
  5
323
330
92
100
AcDbEntity
  8
STANDARD
  6
AUSGEZOGEN
 62
     7
440
 33554687
370
    25
100
AcDbMText
 10
0.1468527221679687
 20
0.1384569702148438
 30
0.0
 40
0.002
 41
0.0220012396300181
 71
     7
 72
     5
  1
\W1.00;CEM I 250 kg/m³
  7
ARIAL
 73
     1
 44
1.0
  0
MTEXT
  5
324
330
92
100
AcDbEntity
  8
STANDARD
  6
AUSGEZOGEN
 62
     7
440
 33554687
370
    25
100
AcDbMText
 10
0.0535728759765625
 20
0.0879735107421875
 30
0.0
 40
0.002
 41
0.0112663420967218
 71
     7
 72
     5
  1
\W1.00;AC F 22
  7
ARIAL
 73
     1
 44
1.0
  0
MTEXT
  5
325
330
92
100
AcDbEntity
  8
STANDARD
  6
AUSGEZOGEN
 62
     7
440
 33554687
370
    25
100
AcDbMText
 10
0.0535728759765625
 20
0.0739735107421875
 30
0.0
 40
0.002
 41
0.0236380089962121
 71
     7
 72
     5
  1
\W1.00;Fundationsschicht
  7
ARIAL
 73
     1
 44
1.0
  0
ENDBLK
  5
94
330
92
100
AcDbEntity
  8
0
100
AcDbBlockEnd
  0
BLOCK
  5
327
330
326
100
AcDbEntity
  8
0
100
AcDbBlockBegin
  2
TB_7000
 70
     0
 10
0.0
 20
0.0
 30
0.0
  3
TB_7000
  1

  0
MTEXT
  5
329
330
326
100
AcDbEntity
  8
STANDARD
  6
AUSGEZOGEN
 62
     1
440
 33554687
370
    13
100
AcDbMText
 10
0.034879638671875
 20
0.16685498046875
 30
0.0
 40
0.012
 41
0.1416202450719233
 71
     7
 72
     5
  1
\W1.00;Die PDF- Version:
  7
ARIAL
 73
     1
 44
1.0
  0
MTEXT
  5
32A
330
326
100
AcDbEntity
  8
STANDARD
  6
AUSGEZOGEN
 62
     1
440
 33554687
370
    13
100
AcDbMText
 10
0.0441795654296875
 20
0.14285498046875
 30
0.0
 40
0.012
 41
0.1228365758754864
 71
     7
 72
     5
  1
\W0.97;1.0: 01.12.2015
  7
ARIAL
 73
     1
 44
1.0
  0
MTEXT
  5
32B
330
326
100
AcDbEntity
  8
STANDARD
  6
AUSGEZOGEN
 62
     1
440
 33554687
370
    13
100
AcDbMText
 10
0.0535796508789063
 20
0.11885498046875
 30
0.0
 40
0.012
 41
0.1042164195564269
 71
     7
 72
     5
  1
\W1.00;hat Gültigkeit
  7
ARIAL
 73
     1
 44
1.0
  0
ENDBLK
  5
328
330
326
100
AcDbEntity
  8
0
100
AcDbBlockEnd
  0
ENDSEC
  0
SECTION
  2
ENTITIES
  0
INSERT
  5
32C
330
1F
100
AcDbEntity
  8
STANDARD
  6
AUSGEZOGEN
 62
     7
440
 33554687
370
    25
100
AcDbBlockReference
  2
TB_3015
 10
0.0
 20
0.0
 30
0.0
  0
INSERT
  5
32D
330
1F
100
AcDbEntity
  8
STANDARD
  6
AUSGEZOGEN
 62
     7
440
 33554687
370
    25
100
AcDbBlockReference
  2
TB_2951
 10
0.0
 20
0.0
 30
0.0
  0
INSERT
  5
32E
330
1F
100
AcDbEntity
  8
STANDARD
  6
AUSGEZOGEN
 62
     7
440
 33554687
370
    25
100
AcDbBlockReference
  2
TB_3017
 10
0.0
 20
0.0
 30
0.0
  0
INSERT
  5
32F
330
1F
100
AcDbEntity
  8
STANDARD
  6
AUSGEZOGEN
 62
     7
440
 33554687
370
    13
100
AcDbBlockReference
  2
TB_7000
 10
0.0
 20
0.0
 30
0.0
  0
ENDSEC
  0
SECTION
  2
OBJECTS
  0
DICTIONARY
  5
C
330
0
100
AcDbDictionary
281
     1
  3
ACAD_DETAILVIEWSTYLE
350
375
  3
ACAD_GROUP
350
D
  3
ACAD_LAYOUT
350
1A
  3
ACAD_MATERIAL
350
43
  3
ACAD_MLEADERSTYLE
350
6B
  3
ACAD_MLINESTYLE
350
17
  3
ACAD_PLOTSETTINGS
350
19
  3
ACAD_PLOTSTYLENAME
350
E
  3
ACAD_SCALELIST
350
47
  3
ACAD_SECTIONVIEWSTYLE
350
376
  3
ACAD_TABLESTYLE
350
69
  3
ACAD_VISUALSTYLE
350
2A
  3
ACDB_RECOMPOSE_DATA
350
372
  3
AcDbVariableDictionary
350
332
  0
DICTIONARY
  5
330
330
8
100
AcDbDictionary
280
     1
281
     1
  3
ACAD_XREC_ROUNDTRIP
360
331
  0
DICTIONARY
  5
375
102
{ACAD_REACTORS
330
C
102
}
330
C
100
AcDbDictionary
281
     1
  0
DICTIONARY
  5
D
102
{ACAD_REACTORS
330
C
102
}
330
C
100
AcDbDictionary
281
     1
  0
DICTIONARY
  5
1A
102
{ACAD_REACTORS
330
C
102
}
330
C
100
AcDbDictionary
281
     1
  3
Layout1
350
1E
  3
Layout2
350
26
  3
Model
350
22
  0
DICTIONARY
  5
43
102
{ACAD_REACTORS
330
C
102
}
330
C
100
AcDbDictionary
281
     1
  3
ByBlock
350
45
  3
ByLayer
350
44
  3
Global
350
46
  0
DICTIONARY
  5
6B
102
{ACAD_REACTORS
330
C
102
}
330
C
100
AcDbDictionary
281
     1
  3
Standard
350
6C
  0
DICTIONARY
  5
17
102
{ACAD_REACTORS
330
C
102
}
330
C
100
AcDbDictionary
281
     1
  3
Standard
350
18
  0
DICTIONARY
  5
19
102
{ACAD_REACTORS
330
C
102
}
330
C
100
AcDbDictionary
281
     1
  0
ACDBDICTIONARYWDFLT
  5
E
102
{ACAD_REACTORS
330
C
102
}
330
C
100
AcDbDictionary
281
     1
  3
Normal
350
F
100
AcDbDictionaryWithDefault
340
F
  0
DICTIONARY
  5
47
102
{ACAD_REACTORS
330
C
102
}
330
C
100
AcDbDictionary
281
     1
  3
A0
350
48
  3
A1
350
49
  3
A2
350
4A
  3
A3
350
4B
  3
A4
350
4C
  3
A5
350
4D
  3
A6
350
4E
  3
A7
350
4F
  3
A8
350
50
  3
A9
350
51
  3
B0
350
52
  3
B1
350
53
  3
B2
350
54
  3
B3
350
55
  3
B4
350
56
  3
B5
350
57
  3
B6
350
58
  3
B7
350
59
  3
B8
350
5A
  3
B9
350
5B
  3
C0
350
5C
  3
C1
350
5D
  3
C2
350
5E
  3
C3
350
5F
  3
C4
350
60
  3
C5
350
61
  3
C6
350
62
  3
C7
350
63
  3
C8
350
64
  3
C9
350
65
  3
D0
350
66
  3
D1
350
67
  3
D2
350
68
  0
DICTIONARY
  5
376
102
{ACAD_REACTORS
330
C
102
}
330
C
100
AcDbDictionary
281
     1
  0
DICTIONARY
  5
69
102
{ACAD_REACTORS
330
C
102
}
330
C
100
AcDbDictionary
281
     1
  3
Standard
350
6A
  0
DICTIONARY
  5
2A
102
{ACAD_REACTORS
330
C
102
}
330
C
100
AcDbDictionary
281
     1
  3
2dWireframe
350
2F
  3
Basic
350
32
  3
Brighten
350
36
  3
ColorChange
350
3A
  3
Conceptual
350
34
  3
Dim
350
35
  3
EdgeColorOff
350
3D
  3
Facepattern
350
39
  3
Flat
350
2B
  3
FlatWithEdges
350
2C
  3
Gouraud
350
2D
  3
GouraudWithEdges
350
2E
  3
Hidden
350
31
  3
JitterOff
350
3B
  3
Linepattern
350
38
  3
OverhangOff
350
3C
  3
Realistic
350
33
  3
Shaded
350
42
  3
Shaded with edges
350
41
  3
Shades of Gray
350
3E
  3
Sketchy
350
3F
  3
Thicken
350
37
  3
Wireframe
350
30
  3
X-Ray
350
40
  0
XRECORD
  5
372
102
{ACAD_REACTORS
330
C
102
}
330
C
100
AcDbXrecord
280
     1
 90
        1
330
6A
  0
DICTIONARY
  5
332
102
{ACAD_REACTORS
330
C
102
}
330
C
100
AcDbDictionary
281
     1
  3
CANNOSCALE
350
333
  3
CMLEADERSTYLE
350
374
  3
CTABLESTYLE
350
373
  3
MSLTSCALE
350
334
  3
XCLIPFRAME
350
335
  0
XRECORD
  5
331
102
{ACAD_REACTORS
330
330
102
}
330
330
100
AcDbXrecord
280
     1
102
VTR_0.000_0.000_1.000_1.000_VISUALSTYLE
340
2F
102
VTR_0.000_0.000_1.000_1.000_GRIDDISPLAY
 70
     3
102
VTR_0.000_0.000_1.000_1.000_GRIDMAJOR
 70
     5
102
VTR_0.000_0.000_1.000_1.000_DEFAULTLIGHTING
280
     1
102
VTR_0.000_0.000_1.000_1.000_DEFAULTLIGHTINGTYPE
 70
     1
102
VTR_0.000_0.000_1.000_1.000_BRIGHTNESS
141
0.0
102
VTR_0.000_0.000_1.000_1.000_CONTRAST
142
0.0
  0
LAYOUT
  5
1E
102
{ACAD_REACTORS
330
1A
102
}
330
1A
100
AcDbPlotSettings
  1

  2
none_device
  4
none_user_media
  6

 40
5.100000000000023
 41
5.0
 42
5.1
 43
5.100000000000023
 44
297.0
 45
210.0
 46
0.0
 47
0.0
 48
0.0
 49
0.0
140
0.0
141
0.0
142
1000.0
143
1.0
 70
   688
 72
     1
 73
     0
 74
     5
  7

 75
    33
 76
     0
 77
     2
 78
   300
147
1000.0
148
0.0
149
0.0
100
AcDbLayout
  1
Layout1
 70
     1
 71
     1
 10
0.0
 20
0.0
 11
12.0
 21
9.0
 12
0.0
 22
0.0
 32
0.0
 14
1.000000000000000E+20
 24
1.000000000000000E+20
 34
1.000000000000000E+20
 15
-1.000000000000000E+20
 25
-1.000000000000000E+20
 35
-1.000000000000000E+20
146
0.0
 13
0.0
 23
0.0
 33
0.0
 16
1.0
 26
0.0
 36
0.0
 17
0.0
 27
1.0
 37
0.0
 76
     0
330
1B
  0
LAYOUT
  5
26
102
{ACAD_REACTORS
330
1A
102
}
330
1A
100
AcDbPlotSettings
  1

  2
none_device
  4

  6

 40
0.0
 41
0.0
 42
0.0
 43
0.0
 44
0.0
 45
0.0
 46
0.0
 47
0.0
 48
0.0
 49
0.0
140
0.0
141
0.0
142
1.0
143
1.0
 70
   688
 72
     0
 73
     0
 74
     5
  7

 75
    16
 76
     0
 77
     2
 78
   300
147
1.0
148
0.0
149
0.0
100
AcDbLayout
  1
Layout2
 70
     1
 71
     2
 10
0.0
 20
0.0
 11
0.0
 21
0.0
 12
0.0
 22
0.0
 32
0.0
 14
0.0
 24
0.0
 34
0.0
 15
0.0
 25
0.0
 35
0.0
146
0.0
 13
0.0
 23
0.0
 33
0.0
 16
1.0
 26
0.0
 36
0.0
 17
0.0
 27
1.0
 37
0.0
 76
     0
330
23
  0
LAYOUT
  5
22
102
{ACAD_REACTORS
330
1A
102
}
330
1A
100
AcDbPlotSettings
  1

  2
none_device
  4
Letter_(8.50_x_11.00_Inches)
  6

 40
6.35
 41
6.35
 42
6.35000508
 43
6.35000508
 44
215.9
 45
279.4
 46
0.0
 47
0.0
 48
0.0
 49
0.0
140
0.0
141
0.0
142
1.0
143
1.0
 70
  1712
 72
     0
 73
     0
 74
     0
  7

 75
     0
 76
     0
 77
     2
 78
   300
147
1.0
148
0.0
149
0.0
100
AcDbLayout
  1
Model
 70
     1
 71
     0
 10
0.0
 20
0.0
 11
12.0
 21
9.0
 12
0.0
 22
0.0
 32
0.0
 14
1.000000000000000E+20
 24
1.000000000000000E+20
 34
1.000000000000000E+20
 15
-1.000000000000000E+20
 25
-1.000000000000000E+20
 35
-1.000000000000000E+20
146
0.0
 13
0.0
 23
0.0
 33
0.0
 16
1.0
 26
0.0
 36
0.0
 17
0.0
 27
1.0
 37
0.0
 76
     0
330
1F
331
29
  0
MATERIAL
  5
45
102
{ACAD_REACTORS
330
43
102
}
102
{ACAD_XDICTIONARY
360
368
102
}
330
43
100
AcDbMaterial
  1
ByBlock
  0
MATERIAL
  5
44
102
{ACAD_REACTORS
330
43
102
}
102
{ACAD_XDICTIONARY
360
366
102
}
330
43
100
AcDbMaterial
  1
ByLayer
  0
MATERIAL
  5
46
102
{ACAD_REACTORS
330
43
102
}
102
{ACAD_XDICTIONARY
360
36A
102
}
330
43
100
AcDbMaterial
  1
Global
  0
MLEADERSTYLE
  5
6C
102
{ACAD_REACTORS
330
6B
102
}
102
{ACAD_XDICTIONARY
360
370
102
}
330
6B
100
AcDbMLeaderStyle
170
     2
171
     1
172
     0
 90
        2
 40
0.0
 41
0.0
173
     1
 91
-1056964608
340
14
 92
       -2
290
     1
 42
0.09
291
     1
 43
0.36
  3
Standard
341
0
 44
0.18
300

342
11
174
     1
178
     6
175
     1
176
     0
 93
-1056964608
 45
0.18
292
     0
297
     0
 46
0.18
343
0
 94
-1056964608
 47
1.0
 49
1.0
140
1.0
293
     1
141
0.0
294
     1
177
     0
142
1.0
295
     0
296
     0
143
0.125
1001
ACAD_MLEADERVER
1070
     2
  0
MLINESTYLE
  5
18
102
{ACAD_REACTORS
330
17
102
}
330
17
100
AcDbMlineStyle
  2
Standard
 70
     0
  3

 62
   256
 51
90.0
 52
90.0
 71
     2
 49
0.5
 62
   256
  6
BYLAYER
 49
-0.5
 62
   256
  6
BYLAYER
  0
ACDBPLACEHOLDER
  5
F
102
{ACAD_REACTORS
330
E
102
}
330
E
  0
SCALE
  5
48
102
{ACAD_REACTORS
330
47
102
}
330
47
100
AcDbScale
 70
     0
300
1:1
140
1.0
141
1.0
290
     1
  0
SCALE
  5
49
102
{ACAD_REACTORS
330
47
102
}
330
47
100
AcDbScale
 70
     0
300
1:2
140
1.0
141
2.0
290
     0
  0
SCALE
  5
4A
102
{ACAD_REACTORS
330
47
102
}
330
47
100
AcDbScale
 70
     0
300
1:4
140
1.0
141
4.0
290
     0
  0
SCALE
  5
4B
102
{ACAD_REACTORS
330
47
102
}
330
47
100
AcDbScale
 70
     0
300
1:5
140
1.0
141
5.0
290
     0
  0
SCALE
  5
4C
102
{ACAD_REACTORS
330
47
102
}
330
47
100
AcDbScale
 70
     0
300
1:8
140
1.0
141
8.0
290
     0
  0
SCALE
  5
4D
102
{ACAD_REACTORS
330
47
102
}
330
47
100
AcDbScale
 70
     0
300
1:10
140
1.0
141
10.0
290
     0
  0
SCALE
  5
4E
102
{ACAD_REACTORS
330
47
102
}
330
47
100
AcDbScale
 70
     0
300
1:16
140
1.0
141
16.0
290
     0
  0
SCALE
  5
4F
102
{ACAD_REACTORS
330
47
102
}
330
47
100
AcDbScale
 70
     0
300
1:20
140
1.0
141
20.0
290
     0
  0
SCALE
  5
50
102
{ACAD_REACTORS
330
47
102
}
330
47
100
AcDbScale
 70
     0
300
1:30
140
1.0
141
30.0
290
     0
  0
SCALE
  5
51
102
{ACAD_REACTORS
330
47
102
}
330
47
100
AcDbScale
 70
     0
300
1:40
140
1.0
141
40.0
290
     0
  0
SCALE
  5
52
102
{ACAD_REACTORS
330
47
102
}
330
47
100
AcDbScale
 70
     0
300
1:50
140
1.0
141
50.0
290
     0
  0
SCALE
  5
53
102
{ACAD_REACTORS
330
47
102
}
330
47
100
AcDbScale
 70
     0
300
1:100
140
1.0
141
100.0
290
     0
  0
SCALE
  5
54
102
{ACAD_REACTORS
330
47
102
}
330
47
100
AcDbScale
 70
     0
300
2:1
140
2.0
141
1.0
290
     0
  0
SCALE
  5
55
102
{ACAD_REACTORS
330
47
102
}
330
47
100
AcDbScale
 70
     0
300
4:1
140
4.0
141
1.0
290
     0
  0
SCALE
  5
56
102
{ACAD_REACTORS
330
47
102
}
330
47
100
AcDbScale
 70
     0
300
8:1
140
8.0
141
1.0
290
     0
  0
SCALE
  5
57
102
{ACAD_REACTORS
330
47
102
}
330
47
100
AcDbScale
 70
     0
300
10:1
140
10.0
141
1.0
290
     0
  0
SCALE
  5
58
102
{ACAD_REACTORS
330
47
102
}
330
47
100
AcDbScale
 70
     0
300
100:1
140
100.0
141
1.0
290
     0
  0
SCALE
  5
59
102
{ACAD_REACTORS
330
47
102
}
330
47
100
AcDbScale
 70
     0
300
1/128" = 1'-0"
140
0.0078125
141
12.0
290
     0
  0
SCALE
  5
5A
102
{ACAD_REACTORS
330
47
102
}
330
47
100
AcDbScale
 70
     0
300
1/64" = 1'-0"
140
0.015625
141
12.0
290
     0
  0
SCALE
  5
5B
102
{ACAD_REACTORS
330
47
102
}
330
47
100
AcDbScale
 70
     0
300
1/32" = 1'-0"
140
0.03125
141
12.0
290
     0
  0
SCALE
  5
5C
102
{ACAD_REACTORS
330
47
102
}
330
47
100
AcDbScale
 70
     0
300
1/16" = 1'-0"
140
0.0625
141
12.0
290
     0
  0
SCALE
  5
5D
102
{ACAD_REACTORS
330
47
102
}
330
47
100
AcDbScale
 70
     0
300
3/32" = 1'-0"
140
0.09375
141
12.0
290
     0
  0
SCALE
  5
5E
102
{ACAD_REACTORS
330
47
102
}
330
47
100
AcDbScale
 70
     0
300
1/8" = 1'-0"
140
0.125
141
12.0
290
     0
  0
SCALE
  5
5F
102
{ACAD_REACTORS
330
47
102
}
330
47
100
AcDbScale
 70
     0
300
3/16" = 1'-0"
140
0.1875
141
12.0
290
     0
  0
SCALE
  5
60
102
{ACAD_REACTORS
330
47
102
}
330
47
100
AcDbScale
 70
     0
300
1/4" = 1'-0"
140
0.25
141
12.0
290
     0
  0
SCALE
  5
61
102
{ACAD_REACTORS
330
47
102
}
330
47
100
AcDbScale
 70
     0
300
3/8" = 1'-0"
140
0.375
141
12.0
290
     0
  0
SCALE
  5
62
102
{ACAD_REACTORS
330
47
102
}
330
47
100
AcDbScale
 70
     0
300
1/2" = 1'-0"
140
0.5
141
12.0
290
     0
  0
SCALE
  5
63
102
{ACAD_REACTORS
330
47
102
}
330
47
100
AcDbScale
 70
     0
300
3/4" = 1'-0"
140
0.75
141
12.0
290
     0
  0
SCALE
  5
64
102
{ACAD_REACTORS
330
47
102
}
330
47
100
AcDbScale
 70
     0
300
1" = 1'-0"
140
1.0
141
12.0
290
     0
  0
SCALE
  5
65
102
{ACAD_REACTORS
330
47
102
}
330
47
100
AcDbScale
 70
     0
300
1-1/2" = 1'-0"
140
1.5
141
12.0
290
     0
  0
SCALE
  5
66
102
{ACAD_REACTORS
330
47
102
}
330
47
100
AcDbScale
 70
     0
300
3" = 1'-0"
140
3.0
141
12.0
290
     0
  0
SCALE
  5
67
102
{ACAD_REACTORS
330
47
102
}
330
47
100
AcDbScale
 70
     0
300
6" = 1'-0"
140
6.0
141
12.0
290
     0
  0
SCALE
  5
68
102
{ACAD_REACTORS
330
47
102
}
330
47
100
AcDbScale
 70
     0
300
1'-0" = 1'-0"
140
12.0
141
12.0
290
     0
  0
TABLESTYLE
  5
6A
102
{ACAD_REACTORS
330
69
102
}
102
{ACAD_XDICTIONARY
360
36C
102
}
330
69
100
AcDbTableStyle
  3
Standard
 70
     0
 71
     0
 40
0.06
 41
0.06
280
     0
281
     0
  7
Standard
140
0.18
170
     2
 62
     0
 63
   257
283
     0
274
    -2
284
     1
 64
     0
275
    -2
285
     1
 65
     0
276
    -2
286
     1
 66
     0
277
    -2
287
     1
 67
     0
278
    -2
288
     1
 68
     0
279
    -2
289
     1
 69
     0
  7
Standard
140
0.25
170
     5
 62
     0
 63
   257
283
     0
274
    -2
284
     1
 64
     0
275
    -2
285
     1
 65
     0
276
    -2
286
     1
 66
     0
277
    -2
287
     1
 67
     0
278
    -2
288
     1
 68
     0
279
    -2
289
     1
 69
     0
  7
Standard
140
0.18
170
     5
 62
     0
 63
   257
283
     0
274
    -2
284
     1
 64
     0
275
    -2
285
     1
 65
     0
276
    -2
286
     1
 66
     0
277
    -2
287
     1
 67
     0
278
    -2
288
     1
 68
     0
279
    -2
289
     1
 69
     0
  0
VISUALSTYLE
  5
2F
102
{ACAD_REACTORS
330
2A
102
}
102
{ACAD_XDICTIONARY
360
33E
102
}
330
2A
100
AcDbVisualStyle
  2
2dWireframe
 70
     4
 71
     0
 72
     2
 73
     0
 90
        0
 40
0.6
 41
30.0
 62
     5
 63
     7
421
 16777215
 74
     1
 91
        4
 64
     7
 65
   257
 75
     1
175
     1
 42
1.0
 92
        0
 66
   257
 43
1.0
 76
     1
 77
     6
 78
     2
 67
     7
 79
     5
170
     0
171
     0
290
     0
174
     0
 93
        1
 44
0.0
173
     0
291
     0
 45
0.0
1001
ACAD
1000
AcDbSavedByObjectVersion
1070
     0
  0
VISUALSTYLE
  5
32
102
{ACAD_REACTORS
330
2A
102
}
102
{ACAD_XDICTIONARY
360
344
102
}
330
2A
100
AcDbVisualStyle
  2
Basic
 70
     7
 71
     1
 72
     0
 73
     1
 90
        0
 40
0.6
 41
30.0
 62
     5
 63
     7
421
 16777215
 74
     0
 91
        4
 64
     7
 65
   257
 75
     1
175
     1
 42
1.0
 92
        8
 66
     7
 43
1.0
 76
     1
 77
     6
 78
     2
 67
     7
 79
     5
170
     0
171
     0
290
     0
174
     0
 93
        1
 44
0.0
173
     0
291
     1
 45
0.0
1001
ACAD
1000
AcDbSavedByObjectVersion
1070
     0
  0
VISUALSTYLE
  5
36
102
{ACAD_REACTORS
330
2A
102
}
102
{ACAD_XDICTIONARY
360
34C
102
}
330
2A
100
AcDbVisualStyle
  2
Brighten
 70
    12
 71
     2
 72
     2
 73
     0
 90
        0
 40
0.6
 41
30.0
 62
     5
 63
     7
421
 16777215
 74
     1
 91
        4
 64
     7
 65
   257
 75
     1
175
     1
 42
1.0
 92
        8
 66
     7
 43
1.0
 76
     1
 77
     6
 78
     2
 67
     7
 79
     5
170
     0
171
     0
290
     0
174
     0
 93
        1
 44
50.0
173
     0
291
     1
 45
0.0
1001
ACAD
1000
AcDbSavedByObjectVersion
1070
     0
  0
VISUALSTYLE
  5
3A
102
{ACAD_REACTORS
330
2A
102
}
102
{ACAD_XDICTIONARY
360
354
102
}
330
2A
100
AcDbVisualStyle
  2
ColorChange
 70
    16
 71
     2
 72
     2
 73
     3
 90
        0
 40
0.6
 41
30.0
 62
     5
 63
     8
421
  8421504
 74
     1
 91
        4
 64
     7
 65
   257
 75
     1
175
     1
 42
1.0
 92
        8
 66
     8
424
  8421504
 43
1.0
 76
     1
 77
     6
 78
     2
 67
     7
 79
     5
170
     0
171
     0
290
     0
174
     0
 93
        1
 44
0.0
173
     0
291
     1
 45
0.0
1001
ACAD
1000
AcDbSavedByObjectVersion
1070
     0
  0
VISUALSTYLE
  5
34
102
{ACAD_REACTORS
330
2A
102
}
102
{ACAD_XDICTIONARY
360
348
102
}
330
2A
100
AcDbVisualStyle
  2
Conceptual
 70
     9
 71
     3
 72
     2
 73
     0
 90
        0
 40
0.6
 41
30.0
 62
     5
 63
     7
421
 16777215
 74
     2
 91
        2
 64
     7
 65
   257
 75
     1
175
     1
 42
179.0
 92
        8
 66
     7
 43
1.0
 76
     1
 77
     6
 78
     2
 67
     7
 79
     3
170
     0
171
     0
290
     0
174
     0
 93
        1
 44
0.0
173
     0
291
     0
 45
0.0
1001
ACAD
1000
AcDbSavedByObjectVersion
1070
     0
  0
VISUALSTYLE
  5
35
102
{ACAD_REACTORS
330
2A
102
}
102
{ACAD_XDICTIONARY
360
34A
102
}
330
2A
100
AcDbVisualStyle
  2
Dim
 70
    11
 71
     2
 72
     2
 73
     0
 90
        0
 40
0.6
 41
30.0
 62
     5
 63
     7
421
 16777215
 74
     1
 91
        4
 64
     7
 65
   257
 75
     1
175
     1
 42
1.0
 92
        8
 66
     7
 43
1.0
 76
     1
 77
     6
 78
     2
 67
     7
 79
     5
170
     0
171
     0
290
     0
174
     0
 93
        1
 44
-50.0
173
     0
291
     1
 45
0.0
1001
ACAD
1000
AcDbSavedByObjectVersion
1070
     0
  0
VISUALSTYLE
  5
3D
102
{ACAD_REACTORS
330
2A
102
}
102
{ACAD_XDICTIONARY
360
35A
102
}
330
2A
100
AcDbVisualStyle
  2
EdgeColorOff
 70
    22
 71
     2
 72
     2
 73
     0
 90
        0
 40
0.6
 41
30.0
 62
     5
 63
     7
421
 16777215
 74
     1
 91
        4
 64
     7
 65
   257
 75
     1
175
     1
 42
1.0
 92
        8
 66
     7
 43
1.0
 76
     1
 77
     6
 78
     2
 67
     7
 79
     5
170
     0
171
     0
290
     0
174
     0
 93
        1
 44
0.0
173
     0
291
     1
 45
0.0
1001
ACAD
1000
AcDbSavedByObjectVersion
1070
     0
  0
VISUALSTYLE
  5
39
102
{ACAD_REACTORS
330
2A
102
}
102
{ACAD_XDICTIONARY
360
352
102
}
330
2A
100
AcDbVisualStyle
  2
Facepattern
 70
    15
 71
     2
 72
     2
 73
     0
 90
        0
 40
0.6
 41
30.0
 62
     5
 63
     7
421
 16777215
 74
     1
 91
        4
 64
     7
 65
   257
 75
     1
175
     1
 42
1.0
 92
        8
 66
     7
 43
1.0
 76
     1
 77
     6
 78
     2
 67
     7
 79
     5
170
     0
171
     0
290
     0
174
     0
 93
        1
 44
0.0
173
     0
291
     1
 45
0.0
1001
ACAD
1000
AcDbSavedByObjectVersion
1070
     0
  0
VISUALSTYLE
  5
2B
102
{ACAD_REACTORS
330
2A
102
}
102
{ACAD_XDICTIONARY
360
336
102
}
330
2A
100
AcDbVisualStyle
  2
Flat
 70
     0
 71
     2
 72
     1
 73
     1
 90
        2
 40
0.6
 41
30.0
 62
     5
 63
     7
421
 16777215
 74
     0
 91
        0
 64
     7
 65
   257
 75
     1
175
     1
 42
1.0
 92
        8
 66
     7
 43
1.0
 76
     1
 77
     6
 78
     2
 67
     7
 79
     5
170
     0
171
     0
290
     0
174
     0
 93
       13
 44
0.0
173
     0
291
     1
 45
0.0
1001
ACAD
1000
AcDbSavedByObjectVersion
1070
     0
  0
VISUALSTYLE
  5
2C
102
{ACAD_REACTORS
330
2A
102
}
102
{ACAD_XDICTIONARY
360
338
102
}
330
2A
100
AcDbVisualStyle
  2
FlatWithEdges
 70
     1
 71
     2
 72
     1
 73
     1
 90
        2
 40
0.6
 41
30.0
 62
     5
 63
     7
421
 16777215
 74
     1
 91
        0
 64
     7
 65
   257
 75
     1
175
     1
 42
1.0
 92
        0
 66
   257
 43
1.0
 76
     1
 77
     6
 78
     2
 67
     7
 79
     5
170
     0
171
     0
290
     0
174
     0
 93
       13
 44
0.0
173
     0
291
     1
 45
0.0
1001
ACAD
1000
AcDbSavedByObjectVersion
1070
     0
  0
VISUALSTYLE
  5
2D
102
{ACAD_REACTORS
330
2A
102
}
102
{ACAD_XDICTIONARY
360
33A
102
}
330
2A
100
AcDbVisualStyle
  2
Gouraud
 70
     2
 71
     2
 72
     2
 73
     1
 90
        2
 40
0.6
 41
30.0
 62
     5
 63
     7
421
 16777215
 74
     0
 91
        0
 64
     7
 65
   257
 75
     1
175
     1
 42
1.0
 92
        0
 66
     7
 43
1.0
 76
     1
 77
     6
 78
     2
 67
     7
 79
     5
170
     0
171
     0
290
     0
174
     0
 93
       13
 44
0.0
173
     0
291
     1
 45
0.0
1001
ACAD
1000
AcDbSavedByObjectVersion
1070
     0
  0
VISUALSTYLE
  5
2E
102
{ACAD_REACTORS
330
2A
102
}
102
{ACAD_XDICTIONARY
360
33C
102
}
330
2A
100
AcDbVisualStyle
  2
GouraudWithEdges
 70
     3
 71
     2
 72
     2
 73
     1
 90
        2
 40
0.6
 41
30.0
 62
     5
 63
     7
421
 16777215
 74
     1
 91
        0
 64
     7
 65
   257
 75
     1
175
     1
 42
1.0
 92
        0
 66
   257
 43
1.0
 76
     1
 77
     6
 78
     2
 67
     7
 79
     5
170
     0
171
     0
290
     0
174
     0
 93
       13
 44
0.0
173
     0
291
     1
 45
0.0
1001
ACAD
1000
AcDbSavedByObjectVersion
1070
     0
  0
VISUALSTYLE
  5
31
102
{ACAD_REACTORS
330
2A
102
}
102
{ACAD_XDICTIONARY
360
342
102
}
330
2A
100
AcDbVisualStyle
  2
Hidden
 70
     6
 71
     1
 72
     2
 73
     2
 90
        0
 40
0.6
 41
30.0
 62
     5
 63
     7
421
 16777215
 74
     2
 91
        2
 64
     7
 65
   257
 75
     2
175
     1
 42
40.0
 92
        0
 66
   257
 43
1.0
 76
     1
 77
     6
 78
     2
 67
     7
 79
     3
170
     0
171
     0
290
     0
174
     0
 93
        1
 44
0.0
173
     0
291
     0
 45
0.0
1001
ACAD
1000
AcDbSavedByObjectVersion
1070
     0
  0
VISUALSTYLE
  5
3B
102
{ACAD_REACTORS
330
2A
102
}
102
{ACAD_XDICTIONARY
360
356
102
}
330
2A
100
AcDbVisualStyle
  2
JitterOff
 70
    20
 71
     2
 72
     2
 73
     0
 90
        0
 40
0.6
 41
30.0
 62
     5
 63
     7
421
 16777215
 74
     1
 91
        4
 64
     7
 65
   257
 75
     1
175
     1
 42
1.0
 92
       10
 66
     7
 43
1.0
 76
     1
 77
     6
 78
     2
 67
     7
 79
     5
170
     0
171
     0
290
     0
174
     0
 93
        1
 44
0.0
173
     0
291
     1
 45
0.0
1001
ACAD
1000
AcDbSavedByObjectVersion
1070
     0
  0
VISUALSTYLE
  5
38
102
{ACAD_REACTORS
330
2A
102
}
102
{ACAD_XDICTIONARY
360
350
102
}
330
2A
100
AcDbVisualStyle
  2
Linepattern
 70
    14
 71
     2
 72
     2
 73
     0
 90
        0
 40
0.6
 41
30.0
 62
     5
 63
     7
421
 16777215
 74
     1
 91
        4
 64
     7
 65
   257
 75
     7
175
     7
 42
1.0
 92
        8
 66
     7
 43
1.0
 76
     1
 77
     6
 78
     2
 67
     7
 79
     5
170
     0
171
     0
290
     0
174
     0
 93
        1
 44
0.0
173
     0
291
     1
 45
0.0
1001
ACAD
1000
AcDbSavedByObjectVersion
1070
     0
  0
VISUALSTYLE
  5
3C
102
{ACAD_REACTORS
330
2A
102
}
102
{ACAD_XDICTIONARY
360
358
102
}
330
2A
100
AcDbVisualStyle
  2
OverhangOff
 70
    21
 71
     2
 72
     2
 73
     0
 90
        0
 40
0.6
 41
30.0
 62
     5
 63
     7
421
 16777215
 74
     1
 91
        4
 64
     7
 65
   257
 75
     1
175
     1
 42
1.0
 92
        9
 66
     7
 43
1.0
 76
     1
 77
     6
 78
     2
 67
     7
 79
     5
170
     0
171
     0
290
     0
174
     0
 93
        1
 44
0.0
173
     0
291
     1
 45
0.0
1001
ACAD
1000
AcDbSavedByObjectVersion
1070
     0
  0
VISUALSTYLE
  5
33
102
{ACAD_REACTORS
330
2A
102
}
102
{ACAD_XDICTIONARY
360
346
102
}
330
2A
100
AcDbVisualStyle
  2
Realistic
 70
     8
 71
     2
 72
     3
 73
     0
 90
        2
 40
0.6
 41
30.0
 62
     5
 63
     7
421
 16777215
 74
     0
 91
        0
 64
     7
 65
   257
 75
     1
175
     1
 42
1.0
 92
        8
 66
   257
 43
1.0
 76
     1
 77
     6
 78
     2
 67
     7
 79
     3
170
     0
171
     0
290
     0
174
     0
 93
       13
 44
0.0
173
     0
291
     0
 45
0.0
1001
ACAD
1000
AcDbSavedByObjectVersion
1070
     0
  0
VISUALSTYLE
  5
42
102
{ACAD_REACTORS
330
2A
102
}
102
{ACAD_XDICTIONARY
360
364
102
}
330
2A
100
AcDbVisualStyle
  2
Shaded
 70
    27
 71
     2
 72
     2
 73
     1
 90
        2
 40
0.6
 41
30.0
 62
     5
 63
     7
421
 16777215
 74
     0
 91
        4
 64
     7
 65
   257
 75
     1
175
     1
 42
1.0
 92
        8
 66
   257
 43
1.0
 76
     1
 77
     6
 78
     2
 67
     8
425
  7895160
 79
     3
170
     0
171
     0
290
     0
174
     0
 93
        5
 44
0.0
173
     0
291
     0
 45
0.0
1001
ACAD
1000
AcDbSavedByObjectVersion
1070
     0
  0
VISUALSTYLE
  5
41
102
{ACAD_REACTORS
330
2A
102
}
102
{ACAD_XDICTIONARY
360
362
102
}
330
2A
100
AcDbVisualStyle
  2
Shaded with edges
 70
    26
 71
     2
 72
     2
 73
     1
 90
        2
 40
0.6
 41
30.0
 62
     5
 63
     7
421
 16777215
 74
     1
 91
       10
 64
     7
 65
   257
 75
     2
175
     1
 42
1.0
 92
        8
 66
   257
 43
1.0
 76
     1
 77
     6
 78
     2
 67
     7
 79
     3
170
     0
171
     0
290
     0
174
     0
 93
        5
 44
0.0
173
     0
291
     0
 45
0.0
1001
ACAD
1000
AcDbSavedByObjectVersion
1070
     0
  0
VISUALSTYLE
  5
3E
102
{ACAD_REACTORS
330
2A
102
}
102
{ACAD_XDICTIONARY
360
35C
102
}
330
2A
100
AcDbVisualStyle
  2
Shades of Gray
 70
    23
 71
     2
 72
     2
 73
     3
 90
        0
 40
0.6
 41
30.0
 62
     5
 63
     7
421
 16777215
 74
     2
 91
        2
 64
     7
 65
     7
 75
     1
175
     1
 42
40.0
 92
        8
 66
     7
 43
1.0
 76
     1
 77
     6
 78
     2
 67
     7
 79
     3
170
     0
171
     0
290
     0
174
     0
 93
        1
 44
0.0
173
     0
291
     0
 45
0.0
1001
ACAD
1000
AcDbSavedByObjectVersion
1070
     0
  0
VISUALSTYLE
  5
3F
102
{ACAD_REACTORS
330
2A
102
}
102
{ACAD_XDICTIONARY
360
35E
102
}
330
2A
100
AcDbVisualStyle
  2
Sketchy
 70
    24
 71
     1
 72
     2
 73
     2
 90
        0
 40
0.6
 41
30.0
 62
     5
 63
     7
421
 16777215
 74
     2
 91
        2
 64
     7
 65
     7
 75
     1
175
     1
 42
40.0
 92
       11
 66
     7
 43
1.0
 76
     1
 77
     6
 78
     2
 67
     7
 79
     6
170
     0
171
     0
290
     0
174
     0
 93
        1
 44
0.0
173
     0
291
     0
 45
0.0
1001
ACAD
1000
AcDbSavedByObjectVersion
1070
     0
  0
VISUALSTYLE
  5
37
102
{ACAD_REACTORS
330
2A
102
}
102
{ACAD_XDICTIONARY
360
34E
102
}
330
2A
100
AcDbVisualStyle
  2
Thicken
 70
    13
 71
     2
 72
     2
 73
     0
 90
        0
 40
0.6
 41
30.0
 62
     5
 63
     7
421
 16777215
 74
     1
 91
        4
 64
     7
 65
   257
 75
     1
175
     1
 42
1.0
 92
       12
 66
     7
 43
1.0
 76
     1
 77
     6
 78
     2
 67
     7
 79
     5
170
     0
171
     0
290
     0
174
     0
 93
        1
 44
0.0
173
     0
291
     1
 45
0.0
1001
ACAD
1000
AcDbSavedByObjectVersion
1070
     0
  0
VISUALSTYLE
  5
30
102
{ACAD_REACTORS
330
2A
102
}
102
{ACAD_XDICTIONARY
360
340
102
}
330
2A
100
AcDbVisualStyle
  2
Wireframe
 70
     5
 71
     0
 72
     2
 73
     0
 90
        0
 40
0.6
 41
30.0
 62
     5
 63
     7
421
 16777215
 74
     1
 91
        4
 64
     7
 65
   257
 75
     1
175
     1
 42
1.0
 92
        0
 66
   257
 43
1.0
 76
     1
 77
     6
 78
     2
 67
     7
 79
     3
170
     0
171
     0
290
     0
174
     0
 93
        1
 44
0.0
173
     0
291
     0
 45
0.0
1001
ACAD
1000
AcDbSavedByObjectVersion
1070
     0
  0
VISUALSTYLE
  5
40
102
{ACAD_REACTORS
330
2A
102
}
102
{ACAD_XDICTIONARY
360
360
102
}
330
2A
100
AcDbVisualStyle
  2
X-Ray
 70
    25
 71
     2
 72
     2
 73
     1
 90
        1
 40
0.5
 41
30.0
 62
     5
 63
     7
421
 16777215
 74
     1
 91
        0
 64
     7
 65
   257
 75
     1
175
     1
 42
1.0
 92
        8
 66
     7
 43
1.0
 76
     1
 77
     6
 78
     2
 67
     7
 79
     3
170
     0
171
     0
290
     0
174
     0
 93
       13
 44
0.0
173
     0
291
     0
 45
0.0
1001
ACAD
1000
AcDbSavedByObjectVersion
1070
     0
  0
DICTIONARYVAR
  5
333
102
{ACAD_REACTORS
330
332
102
}
330
332
100
DictionaryVariables
280
     0
  1
1:1
  0
DICTIONARYVAR
  5
374
102
{ACAD_REACTORS
330
332
102
}
330
332
100
DictionaryVariables
280
     0
  1
Standard
  0
DICTIONARYVAR
  5
373
102
{ACAD_REACTORS
330
332
102
}
330
332
100
DictionaryVariables
280
     0
  1
Standard
  0
DICTIONARYVAR
  5
334
102
{ACAD_REACTORS
330
332
102
}
330
332
100
DictionaryVariables
280
     0
  1
1
  0
DICTIONARYVAR
  5
335
102
{ACAD_REACTORS
330
332
102
}
330
332
100
DictionaryVariables
280
     0
  1
2
  0
DICTIONARY
  5
368
330
45
100
AcDbDictionary
280
     1
281
     1
  3
ACAD_XREC_ROUNDTRIP
360
369
  0
DICTIONARY
  5
366
330
44
100
AcDbDictionary
280
     1
281
     1
  3
ACAD_XREC_ROUNDTRIP
360
367
  0
DICTIONARY
  5
36A
330
46
100
AcDbDictionary
280
     1
281
     1
  3
ACAD_XREC_ROUNDTRIP
360
36B
  0
DICTIONARY
  5
370
330
6C
100
AcDbDictionary
280
     1
281
     1
  3
ACAD_XREC_ROUNDTRIP
360
371
  0
DICTIONARY
  5
36C
330
6A
100
AcDbDictionary
280
     1
281
     1
  3
ACAD_ROUNDTRIP_2008_TABLESTYLE_CELLSTYLEMAP
360
36E
  3
ACAD_XREC_ROUNDTRIP
360
36D
  0
DICTIONARY
  5
33E
330
2F
100
AcDbDictionary
280
     1
281
     1
  3
ACAD_XREC_ROUNDTRIP
360
33F
  0
DICTIONARY
  5
344
330
32
100
AcDbDictionary
280
     1
281
     1
  3
ACAD_XREC_ROUNDTRIP
360
345
  0
DICTIONARY
  5
34C
330
36
100
AcDbDictionary
280
     1
281
     1
  3
ACAD_XREC_ROUNDTRIP
360
34D
  0
DICTIONARY
  5
354
330
3A
100
AcDbDictionary
280
     1
281
     1
  3
ACAD_XREC_ROUNDTRIP
360
355
  0
DICTIONARY
  5
348
330
34
100
AcDbDictionary
280
     1
281
     1
  3
ACAD_XREC_ROUNDTRIP
360
349
  0
DICTIONARY
  5
34A
330
35
100
AcDbDictionary
280
     1
281
     1
  3
ACAD_XREC_ROUNDTRIP
360
34B
  0
DICTIONARY
  5
35A
330
3D
100
AcDbDictionary
280
     1
281
     1
  3
ACAD_XREC_ROUNDTRIP
360
35B
  0
DICTIONARY
  5
352
330
39
100
AcDbDictionary
280
     1
281
     1
  3
ACAD_XREC_ROUNDTRIP
360
353
  0
DICTIONARY
  5
336
330
2B
100
AcDbDictionary
280
     1
281
     1
  3
ACAD_XREC_ROUNDTRIP
360
337
  0
DICTIONARY
  5
338
330
2C
100
AcDbDictionary
280
     1
281
     1
  3
ACAD_XREC_ROUNDTRIP
360
339
  0
DICTIONARY
  5
33A
330
2D
100
AcDbDictionary
280
     1
281
     1
  3
ACAD_XREC_ROUNDTRIP
360
33B
  0
DICTIONARY
  5
33C
330
2E
100
AcDbDictionary
280
     1
281
     1
  3
ACAD_XREC_ROUNDTRIP
360
33D
  0
DICTIONARY
  5
342
330
31
100
AcDbDictionary
280
     1
281
     1
  3
ACAD_XREC_ROUNDTRIP
360
343
  0
DICTIONARY
  5
356
330
3B
100
AcDbDictionary
280
     1
281
     1
  3
ACAD_XREC_ROUNDTRIP
360
357
  0
DICTIONARY
  5
350
330
38
100
AcDbDictionary
280
     1
281
     1
  3
ACAD_XREC_ROUNDTRIP
360
351
  0
DICTIONARY
  5
358
330
3C
100
AcDbDictionary
280
     1
281
     1
  3
ACAD_XREC_ROUNDTRIP
360
359
  0
DICTIONARY
  5
346
330
33
100
AcDbDictionary
280
     1
281
     1
  3
ACAD_XREC_ROUNDTRIP
360
347
  0
DICTIONARY
  5
364
330
42
100
AcDbDictionary
280
     1
281
     1
  3
ACAD_XREC_ROUNDTRIP
360
365
  0
DICTIONARY
  5
362
330
41
100
AcDbDictionary
280
     1
281
     1
  3
ACAD_XREC_ROUNDTRIP
360
363
  0
DICTIONARY
  5
35C
330
3E
100
AcDbDictionary
280
     1
281
     1
  3
ACAD_XREC_ROUNDTRIP
360
35D
  0
DICTIONARY
  5
35E
330
3F
100
AcDbDictionary
280
     1
281
     1
  3
ACAD_XREC_ROUNDTRIP
360
35F
  0
DICTIONARY
  5
34E
330
37
100
AcDbDictionary
280
     1
281
     1
  3
ACAD_XREC_ROUNDTRIP
360
34F
  0
DICTIONARY
  5
340
330
30
100
AcDbDictionary
280
     1
281
     1
  3
ACAD_XREC_ROUNDTRIP
360
341
  0
DICTIONARY
  5
360
330
40
100
AcDbDictionary
280
     1
281
     1
  3
ACAD_XREC_ROUNDTRIP
360
361
  0
XRECORD
  5
369
102
{ACAD_REACTORS
330
368
102
}
330
368
100
AcDbXrecord
280
     1
102
MATERIAL
148
0.0
149
0.0
149
0.0
 93
        0
 94
      127
282
     0
 72
     1
 77
     1
171
     1
175
     1
179
     1
273
     0
  0
XRECORD
  5
367
102
{ACAD_REACTORS
330
366
102
}
330
366
100
AcDbXrecord
280
     1
102
MATERIAL
148
0.0
149
0.0
149
0.0
 93
        0
 94
      127
282
     0
 72
     1
 77
     1
171
     1
175
     1
179
     1
273
     0
  0
XRECORD
  5
36B
102
{ACAD_REACTORS
330
36A
102
}
330
36A
100
AcDbXrecord
280
     1
102
MATERIAL
148
0.0
149
0.0
149
0.0
 93
        0
 94
      127
282
     0
 72
     1
 77
     1
171
     1
175
     1
179
     1
273
     0
  0
XRECORD
  5
371
102
{ACAD_REACTORS
330
370
102
}
330
370
100
AcDbXrecord
280
     1
102
ACAD_ROUNDTRIP_2010_MLEADER_STYLE
  0
CELLSTYLEMAP
  5
36E
102
{ACAD_REACTORS
330
36C
102
}
330
36C
100
AcDbCellStyleMap
 90
        3
300
CELLSTYLE
  1
TABLEFORMAT_BEGIN
 90
        5
170
     1
 91
        0
 92
    32768
 62
   257
 93
        1
300
CONTENTFORMAT
  1
CONTENTFORMAT_BEGIN
 90
        0
 91
        0
 92
        4
 93
        0
300

 40
0.0
140
1.0
 94
        5
 62
     0
340
11
144
0.25
309
CONTENTFORMAT_END
171
     1
301
MARGIN
  1
CELLMARGIN_BEGIN
 40
0.06
 40
0.06
 40
0.06
 40
0.06
 40
0.06
 40
0.06
309
CELLMARGIN_END
 94
        6
 95
        1
302
GRIDFORMAT
  1
GRIDFORMAT_BEGIN
 90
        0
 91
        1
 62
     0
 92
       -2
340
14
 93
        0
 40
0.045
309
GRIDFORMAT_END
 95
        2
302
GRIDFORMAT
  1
GRIDFORMAT_BEGIN
 90
        0
 91
        1
 62
     0
 92
       -2
340
14
 93
        0
 40
0.045
309
GRIDFORMAT_END
 95
        4
302
GRIDFORMAT
  1
GRIDFORMAT_BEGIN
 90
        0
 91
        1
 62
     0
 92
       -2
340
14
 93
        0
 40
0.045
309
GRIDFORMAT_END
 95
        8
302
GRIDFORMAT
  1
GRIDFORMAT_BEGIN
 90
        0
 91
        1
 62
     0
 92
       -2
340
14
 93
        0
 40
0.045
309
GRIDFORMAT_END
 95
       16
302
GRIDFORMAT
  1
GRIDFORMAT_BEGIN
 90
        0
 91
        1
 62
     0
 92
       -2
340
14
 93
        0
 40
0.045
309
GRIDFORMAT_END
 95
       32
302
GRIDFORMAT
  1
GRIDFORMAT_BEGIN
 90
        0
 91
        1
 62
     0
 92
       -2
340
14
 93
        0
 40
0.045
309
GRIDFORMAT_END
309
TABLEFORMAT_END
  1
CELLSTYLE_BEGIN
 90
        1
 91
        1
300
_TITLE
309
CELLSTYLE_END
300
CELLSTYLE
  1
TABLEFORMAT_BEGIN
 90
        5
170
     1
 91
        0
 92
        0
 62
   257
 93
        1
300
CONTENTFORMAT
  1
CONTENTFORMAT_BEGIN
 90
        0
 91
        0
 92
        4
 93
        0
300

 40
0.0
140
1.0
 94
        5
 62
     0
340
11
144
0.18
309
CONTENTFORMAT_END
171
     1
301
MARGIN
  1
CELLMARGIN_BEGIN
 40
0.06
 40
0.06
 40
0.06
 40
0.06
 40
0.06
 40
0.06
309
CELLMARGIN_END
 94
        6
 95
        1
302
GRIDFORMAT
  1
GRIDFORMAT_BEGIN
 90
        0
 91
        1
 62
     0
 92
       -2
340
14
 93
        0
 40
0.045
309
GRIDFORMAT_END
 95
        2
302
GRIDFORMAT
  1
GRIDFORMAT_BEGIN
 90
        0
 91
        1
 62
     0
 92
       -2
340
14
 93
        0
 40
0.045
309
GRIDFORMAT_END
 95
        4
302
GRIDFORMAT
  1
GRIDFORMAT_BEGIN
 90
        0
 91
        1
 62
     0
 92
       -2
340
14
 93
        0
 40
0.045
309
GRIDFORMAT_END
 95
        8
302
GRIDFORMAT
  1
GRIDFORMAT_BEGIN
 90
        0
 91
        1
 62
     0
 92
       -2
340
14
 93
        0
 40
0.045
309
GRIDFORMAT_END
 95
       16
302
GRIDFORMAT
  1
GRIDFORMAT_BEGIN
 90
        0
 91
        1
 62
     0
 92
       -2
340
14
 93
        0
 40
0.045
309
GRIDFORMAT_END
 95
       32
302
GRIDFORMAT
  1
GRIDFORMAT_BEGIN
 90
        0
 91
        1
 62
     0
 92
       -2
340
14
 93
        0
 40
0.045
309
GRIDFORMAT_END
309
TABLEFORMAT_END
  1
CELLSTYLE_BEGIN
 90
        2
 91
        1
300
_HEADER
309
CELLSTYLE_END
300
CELLSTYLE
  1
TABLEFORMAT_BEGIN
 90
        5
170
     1
 91
        0
 92
        0
 62
   257
 93
        1
300
CONTENTFORMAT
  1
CONTENTFORMAT_BEGIN
 90
        0
 91
        0
 92
        4
 93
        0
300

 40
0.0
140
1.0
 94
        2
 62
     0
340
11
144
0.18
309
CONTENTFORMAT_END
171
     1
301
MARGIN
  1
CELLMARGIN_BEGIN
 40
0.06
 40
0.06
 40
0.06
 40
0.06
 40
0.06
 40
0.06
309
CELLMARGIN_END
 94
        6
 95
        1
302
GRIDFORMAT
  1
GRIDFORMAT_BEGIN
 90
        0
 91
        1
 62
     0
 92
       -2
340
14
 93
        0
 40
0.045
309
GRIDFORMAT_END
 95
        2
302
GRIDFORMAT
  1
GRIDFORMAT_BEGIN
 90
        0
 91
        1
 62
     0
 92
       -2
340
14
 93
        0
 40
0.045
309
GRIDFORMAT_END
 95
        4
302
GRIDFORMAT
  1
GRIDFORMAT_BEGIN
 90
        0
 91
        1
 62
     0
 92
       -2
340
14
 93
        0
 40
0.045
309
GRIDFORMAT_END
 95
        8
302
GRIDFORMAT
  1
GRIDFORMAT_BEGIN
 90
        0
 91
        1
 62
     0
 92
       -2
340
14
 93
        0
 40
0.045
309
GRIDFORMAT_END
 95
       16
302
GRIDFORMAT
  1
GRIDFORMAT_BEGIN
 90
        0
 91
        1
 62
     0
 92
       -2
340
14
 93
        0
 40
0.045
309
GRIDFORMAT_END
 95
       32
302
GRIDFORMAT
  1
GRIDFORMAT_BEGIN
 90
        0
 91
        1
 62
     0
 92
       -2
340
14
 93
        0
 40
0.045
309
GRIDFORMAT_END
309
TABLEFORMAT_END
  1
CELLSTYLE_BEGIN
 90
        3
 91
        2
300
_DATA
309
CELLSTYLE_END
  0
XRECORD
  5
36D
102
{ACAD_REACTORS
330
36C
102
}
330
36C
100
AcDbXrecord
280
     1
102
ACAD_ROUNDTRIP_PRE2007_TABLESTYLE
 90
        4
 91
        0
  1

 92
        4
 93
        0
  2

 94
        4
 95
        0
  3

  0
XRECORD
  5
33F
102
{ACAD_REACTORS
330
33E
102
}
330
33E
100
AcDbXrecord
280
     1
102
RTVSPropertyOp0
 70
     1
102
RTVSPropertyOp1
 70
     1
102
RTVSPropertyOp2
 70
     1
102
RTVSPropertyOp3
 70
     1
102
RTVSPropertyOp4
 70
     1
102
RTVSPropertyOp5
 70
     1
102
RTVSPropertyOp6
 70
     1
102
RTVSPropertyOp7
 70
     1
102
RTVSPropertyOp8
 70
     1
102
RTVSPropertyOp9
 70
     1
102
RTVSPropertyOp10
 70
     1
102
RTVSPropertyOp11
 70
     1
102
RTVSPropertyOp12
 70
     1
102
RTVSPropertyOp13
 70
     1
102
RTVSPropertyOp14
 70
     1
102
RTVSPropertyOp15
 70
     1
102
RTVSPropertyOp16
 70
     1
102
RTVSPropertyOp17
 70
     1
102
RTVSPropertyOp18
 70
     1
102
RTVSPropertyOp19
 70
     1
102
RTVSPropertyOp20
 70
     1
102
RTVSPropertyOp21
 70
     1
102
RTVSPropertyOp22
 70
     1
102
RTVSPropertyOp23
 70
     1
102
RTVSPropertyOp24
 70
     1
102
RTVSPropertyOp25
 70
     1
102
RTVSPropertyOp26
 70
     1
102
RTVSPropertyOp27
 70
     1
102
RTVSPropertyOp28
 70
     1
102
RTVSPropertyOp29
 70
     1
102
RTVSPropertyOp30
 70
     1
102
RTVSPropertyOp31
 70
     1
102
RTVSPropertyOp32
 70
     1
102
RTVSPropertyOp33
 70
     1
102
RTVSPropertyOp34
 70
     1
102
RTVSPropertyOp35
 70
     1
102
RTVSPropertyOp36
 70
     1
102
RTVSPropertyOp37
 70
     1
102
RTVSPropertyOp38
 70
     1
102
RTVSPropertyOp39
 70
     1
102
RTVSPropertyOp40
 70
     1
102
RTVSPropertyOp41
 70
     1
102
RTVSPropertyOp42
 70
     1
102
RTVSPropertyOp43
 70
     1
102
RTVSPropertyOp44
 70
     1
102
RTVSPropertyOp45
 70
     1
102
RTVSPropertyOp46
 70
     1
102
RTVSPropertyOp47
 70
     1
102
RTVSPropertyOp48
 70
     1
102
RTVSPropertyOp49
 70
     1
102
RTVSPropertyOp50
 70
     1
102
RTVSPropertyOp51
 70
     0
102
RTVSPropertyOp52
 70
     0
102
RTVSPropertyOp53
 70
     1
102
RTVSPropertyOp54
 70
     1
102
RTVSPropertyOp55
 70
     1
102
RTVSPropertyOp56
 70
     1
102
RTVSPropertyOp57
 70
     1
102
RTVSPost2010Prop28
280
     1
102
RTVSPost2010PropOp28
 70
     1
102
RTVSPost2010Prop29
280
     1
102
RTVSPost2010PropOp29
 70
     1
102
RTVSPost2010Prop30
280
     0
102
RTVSPost2010PropOp30
 70
     1
102
RTVSPost2010Prop31
280
     0
102
RTVSPost2010PropOp31
 70
     1
102
RTVSPost2010Prop32
280
     0
102
RTVSPost2010PropOp32
 70
     1
102
RTVSPost2010Prop33
280
     0
102
RTVSPost2010PropOp33
 70
     1
102
RTVSPost2010Prop34
280
     0
102
RTVSPost2010PropOp34
 70
     1
102
RTVSPost2010Prop35
280
     0
102
RTVSPost2010PropOp35
 70
     1
102
RTVSPost2010Prop36
280
     0
102
RTVSPost2010PropOp36
 70
     1
102
RTVSPost2010Prop37
 90
       50
102
RTVSPost2010PropOp37
 70
     1
102
RTVSPost2010Prop38
140
0.0
102
RTVSPost2010PropOp38
 70
     1
102
RTVSPost2010Prop39
140
1.0
102
RTVSPost2010PropOp39
 70
     1
102
RTVSPost2010Prop40
 90
        0
102
RTVSPost2010PropOp40
 70
     1
102
RTVSPost2010Prop41ColorIndex
 90
       18
102
RTVSPost2010Prop41ColorRGB
 90
        0
102
RTVSPost2010PropOp41
 70
     1
102
RTVSPost2010Prop42
 90
       50
102
RTVSPost2010PropOp42
 70
     1
102
RTVSPost2010Prop43
 90
        3
102
RTVSPost2010PropOp43
 70
     1
102
RTVSPost2010Prop44ColorIndex
 90
        5
102
RTVSPost2010Prop44ColorRGB
 90
      255
102
RTVSPost2010PropOp44
 70
     1
102
RTVSPost2010Prop45
280
     0
102
RTVSPost2010PropOp45
 70
     1
102
RTVSPost2010Prop46
 90
       50
102
RTVSPost2010PropOp46
 70
     1
102
RTVSPost2010Prop47
 90
       50
102
RTVSPost2010PropOp47
 70
     1
102
RTVSPost2010Prop48
 90
       50
102
RTVSPost2010PropOp48
 70
     1
102
RTVSPost2010Prop49
280
     0
102
RTVSPost2010PropOp49
 70
     1
102
RTVSPost2010Prop50
 90
       50
102
RTVSPost2010PropOp50
 70
     1
102
RTVSPost2010Prop51ColorIndex
 90
      256
102
RTVSPost2010Prop51ColorRGB
 90
-16777216
102
RTVSPost2010PropOp51
 70
     0
102
RTVSPost2010Prop52
140
1.0
102
RTVSPost2010PropOp52
 70
     0
102
RTVSPost2010Prop53
 90
        2
102
RTVSPost2010PropOp53
 70
     1
102
RTVSPost2010Prop54
  1
strokes_ogs.tif
102
RTVSPost2010PropOp54
 70
     1
102
RTVSPost2010Prop55
280
     0
102
RTVSPost2010PropOp55
 70
     1
102
RTVSPost2010Prop56
140
1.0
102
RTVSPost2010PropOp56
 70
     1
102
RTVSPost2010Prop57
140
1.0
102
RTVSPost2010PropOp57
 70
     1
  0
XRECORD
  5
345
102
{ACAD_REACTORS
330
344
102
}
330
344
100
AcDbXrecord
280
     1
102
RTVSPropertyOp0
 70
     1
102
RTVSPropertyOp1
 70
     1
102
RTVSPropertyOp2
 70
     1
102
RTVSPropertyOp3
 70
     1
102
RTVSPropertyOp4
 70
     1
102
RTVSPropertyOp5
 70
     1
102
RTVSPropertyOp6
 70
     1
102
RTVSPropertyOp7
 70
     1
102
RTVSPropertyOp8
 70
     1
102
RTVSPropertyOp9
 70
     1
102
RTVSPropertyOp10
 70
     1
102
RTVSPropertyOp11
 70
     1
102
RTVSPropertyOp12
 70
     1
102
RTVSPropertyOp13
 70
     1
102
RTVSPropertyOp14
 70
     1
102
RTVSPropertyOp15
 70
     1
102
RTVSPropertyOp16
 70
     1
102
RTVSPropertyOp17
 70
     1
102
RTVSPropertyOp18
 70
     1
102
RTVSPropertyOp19
 70
     1
102
RTVSPropertyOp20
 70
     1
102
RTVSPropertyOp21
 70
     1
102
RTVSPropertyOp22
 70
     1
102
RTVSPropertyOp23
 70
     1
102
RTVSPropertyOp24
 70
     1
102
RTVSPropertyOp25
 70
     1
102
RTVSPropertyOp26
 70
     1
102
RTVSPropertyOp27
 70
     1
102
RTVSPropertyOp28
 70
     1
102
RTVSPropertyOp29
 70
     1
102
RTVSPropertyOp30
 70
     1
102
RTVSPropertyOp31
 70
     1
102
RTVSPropertyOp32
 70
     1
102
RTVSPropertyOp33
 70
     1
102
RTVSPropertyOp34
 70
     1
102
RTVSPropertyOp35
 70
     1
102
RTVSPropertyOp36
 70
     1
102
RTVSPropertyOp37
 70
     1
102
RTVSPropertyOp38
 70
     1
102
RTVSPropertyOp39
 70
     1
102
RTVSPropertyOp40
 70
     1
102
RTVSPropertyOp41
 70
     1
102
RTVSPropertyOp42
 70
     1
102
RTVSPropertyOp43
 70
     1
102
RTVSPropertyOp44
 70
     1
102
RTVSPropertyOp45
 70
     1
102
RTVSPropertyOp46
 70
     1
102
RTVSPropertyOp47
 70
     1
102
RTVSPropertyOp48
 70
     1
102
RTVSPropertyOp49
 70
     1
102
RTVSPropertyOp50
 70
     1
102
RTVSPropertyOp51
 70
     0
102
RTVSPropertyOp52
 70
     0
102
RTVSPropertyOp53
 70
     1
102
RTVSPropertyOp54
 70
     1
102
RTVSPropertyOp55
 70
     1
102
RTVSPropertyOp56
 70
     1
102
RTVSPropertyOp57
 70
     1
102
RTVSPost2010Prop28
280
     0
102
RTVSPost2010PropOp28
 70
     1
102
RTVSPost2010Prop29
280
     1
102
RTVSPost2010PropOp29
 70
     1
102
RTVSPost2010Prop30
280
     1
102
RTVSPost2010PropOp30
 70
     1
102
RTVSPost2010Prop31
280
     0
102
RTVSPost2010PropOp31
 70
     1
102
RTVSPost2010Prop32
280
     0
102
RTVSPost2010PropOp32
 70
     1
102
RTVSPost2010Prop33
280
     0
102
RTVSPost2010PropOp33
 70
     1
102
RTVSPost2010Prop34
280
     0
102
RTVSPost2010PropOp34
 70
     1
102
RTVSPost2010Prop35
280
     0
102
RTVSPost2010PropOp35
 70
     1
102
RTVSPost2010Prop36
280
     0
102
RTVSPost2010PropOp36
 70
     1
102
RTVSPost2010Prop37
 90
       50
102
RTVSPost2010PropOp37
 70
     1
102
RTVSPost2010Prop38
140
0.0
102
RTVSPost2010PropOp38
 70
     1
102
RTVSPost2010Prop39
140
1.0
102
RTVSPost2010PropOp39
 70
     1
102
RTVSPost2010Prop40
 90
        0
102
RTVSPost2010PropOp40
 70
     1
102
RTVSPost2010Prop41ColorIndex
 90
       18
102
RTVSPost2010Prop41ColorRGB
 90
        0
102
RTVSPost2010PropOp41
 70
     1
102
RTVSPost2010Prop42
 90
       50
102
RTVSPost2010PropOp42
 70
     1
102
RTVSPost2010Prop43
 90
        3
102
RTVSPost2010PropOp43
 70
     1
102
RTVSPost2010Prop44ColorIndex
 90
        5
102
RTVSPost2010Prop44ColorRGB
 90
      255
102
RTVSPost2010PropOp44
 70
     1
102
RTVSPost2010Prop45
280
     0
102
RTVSPost2010PropOp45
 70
     1
102
RTVSPost2010Prop46
 90
       50
102
RTVSPost2010PropOp46
 70
     1
102
RTVSPost2010Prop47
 90
       50
102
RTVSPost2010PropOp47
 70
     1
102
RTVSPost2010Prop48
 90
       50
102
RTVSPost2010PropOp48
 70
     1
102
RTVSPost2010Prop49
280
     0
102
RTVSPost2010PropOp49
 70
     1
102
RTVSPost2010Prop50
 90
       50
102
RTVSPost2010PropOp50
 70
     1
102
RTVSPost2010Prop51ColorIndex
 90
      256
102
RTVSPost2010Prop51ColorRGB
 90
-16777216
102
RTVSPost2010PropOp51
 70
     0
102
RTVSPost2010Prop52
140
1.0
102
RTVSPost2010PropOp52
 70
     0
102
RTVSPost2010Prop53
 90
        2
102
RTVSPost2010PropOp53
 70
     1
102
RTVSPost2010Prop54
  1
strokes_ogs.tif
102
RTVSPost2010PropOp54
 70
     1
102
RTVSPost2010Prop55
280
     0
102
RTVSPost2010PropOp55
 70
     1
102
RTVSPost2010Prop56
140
1.0
102
RTVSPost2010PropOp56
 70
     1
102
RTVSPost2010Prop57
140
1.0
102
RTVSPost2010PropOp57
 70
     1
  0
XRECORD
  5
34D
102
{ACAD_REACTORS
330
34C
102
}
330
34C
100
AcDbXrecord
280
     1
102
RTVSPropertyOp0
 70
     1
102
RTVSPropertyOp1
 70
     1
102
RTVSPropertyOp2
 70
     1
102
RTVSPropertyOp3
 70
     1
102
RTVSPropertyOp4
 70
     1
102
RTVSPropertyOp5
 70
     1
102
RTVSPropertyOp6
 70
     1
102
RTVSPropertyOp7
 70
     1
102
RTVSPropertyOp8
 70
     1
102
RTVSPropertyOp9
 70
     1
102
RTVSPropertyOp10
 70
     1
102
RTVSPropertyOp11
 70
     1
102
RTVSPropertyOp12
 70
     1
102
RTVSPropertyOp13
 70
     1
102
RTVSPropertyOp14
 70
     1
102
RTVSPropertyOp15
 70
     1
102
RTVSPropertyOp16
 70
     1
102
RTVSPropertyOp17
 70
     1
102
RTVSPropertyOp18
 70
     1
102
RTVSPropertyOp19
 70
     1
102
RTVSPropertyOp20
 70
     1
102
RTVSPropertyOp21
 70
     1
102
RTVSPropertyOp22
 70
     1
102
RTVSPropertyOp23
 70
     1
102
RTVSPropertyOp24
 70
     1
102
RTVSPropertyOp25
 70
     1
102
RTVSPropertyOp26
 70
     1
102
RTVSPropertyOp27
 70
     1
102
RTVSPropertyOp28
 70
     1
102
RTVSPropertyOp29
 70
     1
102
RTVSPropertyOp30
 70
     1
102
RTVSPropertyOp31
 70
     1
102
RTVSPropertyOp32
 70
     1
102
RTVSPropertyOp33
 70
     1
102
RTVSPropertyOp34
 70
     1
102
RTVSPropertyOp35
 70
     1
102
RTVSPropertyOp36
 70
     1
102
RTVSPropertyOp37
 70
     1
102
RTVSPropertyOp38
 70
     1
102
RTVSPropertyOp39
 70
     1
102
RTVSPropertyOp40
 70
     1
102
RTVSPropertyOp41
 70
     1
102
RTVSPropertyOp42
 70
     1
102
RTVSPropertyOp43
 70
     1
102
RTVSPropertyOp44
 70
     1
102
RTVSPropertyOp45
 70
     1
102
RTVSPropertyOp46
 70
     1
102
RTVSPropertyOp47
 70
     1
102
RTVSPropertyOp48
 70
     1
102
RTVSPropertyOp49
 70
     1
102
RTVSPropertyOp50
 70
     1
102
RTVSPropertyOp51
 70
     0
102
RTVSPropertyOp52
 70
     0
102
RTVSPropertyOp53
 70
     1
102
RTVSPropertyOp54
 70
     1
102
RTVSPropertyOp55
 70
     1
102
RTVSPropertyOp56
 70
     1
102
RTVSPropertyOp57
 70
     1
102
RTVSPost2010Prop28
280
     0
102
RTVSPost2010PropOp28
 70
     1
102
RTVSPost2010Prop29
280
     1
102
RTVSPost2010PropOp29
 70
     1
102
RTVSPost2010Prop30
280
     1
102
RTVSPost2010PropOp30
 70
     1
102
RTVSPost2010Prop31
280
     0
102
RTVSPost2010PropOp31
 70
     1
102
RTVSPost2010Prop32
280
     0
102
RTVSPost2010PropOp32
 70
     1
102
RTVSPost2010Prop33
280
     0
102
RTVSPost2010PropOp33
 70
     1
102
RTVSPost2010Prop34
280
     0
102
RTVSPost2010PropOp34
 70
     1
102
RTVSPost2010Prop35
280
     0
102
RTVSPost2010PropOp35
 70
     1
102
RTVSPost2010Prop36
280
     0
102
RTVSPost2010PropOp36
 70
     1
102
RTVSPost2010Prop37
 90
       50
102
RTVSPost2010PropOp37
 70
     1
102
RTVSPost2010Prop38
140
0.0
102
RTVSPost2010PropOp38
 70
     1
102
RTVSPost2010Prop39
140
1.0
102
RTVSPost2010PropOp39
 70
     1
102
RTVSPost2010Prop40
 90
        0
102
RTVSPost2010PropOp40
 70
     1
102
RTVSPost2010Prop41ColorIndex
 90
       18
102
RTVSPost2010Prop41ColorRGB
 90
        0
102
RTVSPost2010PropOp41
 70
     1
102
RTVSPost2010Prop42
 90
       50
102
RTVSPost2010PropOp42
 70
     1
102
RTVSPost2010Prop43
 90
        3
102
RTVSPost2010PropOp43
 70
     1
102
RTVSPost2010Prop44ColorIndex
 90
        5
102
RTVSPost2010Prop44ColorRGB
 90
      255
102
RTVSPost2010PropOp44
 70
     1
102
RTVSPost2010Prop45
280
     0
102
RTVSPost2010PropOp45
 70
     1
102
RTVSPost2010Prop46
 90
       50
102
RTVSPost2010PropOp46
 70
     1
102
RTVSPost2010Prop47
 90
       50
102
RTVSPost2010PropOp47
 70
     1
102
RTVSPost2010Prop48
 90
       50
102
RTVSPost2010PropOp48
 70
     1
102
RTVSPost2010Prop49
280
     0
102
RTVSPost2010PropOp49
 70
     1
102
RTVSPost2010Prop50
 90
       50
102
RTVSPost2010PropOp50
 70
     1
102
RTVSPost2010Prop51ColorIndex
 90
      256
102
RTVSPost2010Prop51ColorRGB
 90
-16777216
102
RTVSPost2010PropOp51
 70
     0
102
RTVSPost2010Prop52
140
1.0
102
RTVSPost2010PropOp52
 70
     0
102
RTVSPost2010Prop53
 90
        2
102
RTVSPost2010PropOp53
 70
     1
102
RTVSPost2010Prop54
  1
strokes_ogs.tif
102
RTVSPost2010PropOp54
 70
     1
102
RTVSPost2010Prop55
280
     0
102
RTVSPost2010PropOp55
 70
     1
102
RTVSPost2010Prop56
140
1.0
102
RTVSPost2010PropOp56
 70
     1
102
RTVSPost2010Prop57
140
1.0
102
RTVSPost2010PropOp57
 70
     1
  0
XRECORD
  5
355
102
{ACAD_REACTORS
330
354
102
}
330
354
100
AcDbXrecord
280
     1
102
RTVSPropertyOp0
 70
     1
102
RTVSPropertyOp1
 70
     1
102
RTVSPropertyOp2
 70
     1
102
RTVSPropertyOp3
 70
     1
102
RTVSPropertyOp4
 70
     1
102
RTVSPropertyOp5
 70
     1
102
RTVSPropertyOp6
 70
     1
102
RTVSPropertyOp7
 70
     1
102
RTVSPropertyOp8
 70
     1
102
RTVSPropertyOp9
 70
     1
102
RTVSPropertyOp10
 70
     1
102
RTVSPropertyOp11
 70
     1
102
RTVSPropertyOp12
 70
     1
102
RTVSPropertyOp13
 70
     1
102
RTVSPropertyOp14
 70
     1
102
RTVSPropertyOp15
 70
     1
102
RTVSPropertyOp16
 70
     1
102
RTVSPropertyOp17
 70
     1
102
RTVSPropertyOp18
 70
     1
102
RTVSPropertyOp19
 70
     1
102
RTVSPropertyOp20
 70
     1
102
RTVSPropertyOp21
 70
     1
102
RTVSPropertyOp22
 70
     1
102
RTVSPropertyOp23
 70
     1
102
RTVSPropertyOp24
 70
     1
102
RTVSPropertyOp25
 70
     1
102
RTVSPropertyOp26
 70
     1
102
RTVSPropertyOp27
 70
     1
102
RTVSPropertyOp28
 70
     1
102
RTVSPropertyOp29
 70
     1
102
RTVSPropertyOp30
 70
     1
102
RTVSPropertyOp31
 70
     1
102
RTVSPropertyOp32
 70
     1
102
RTVSPropertyOp33
 70
     1
102
RTVSPropertyOp34
 70
     1
102
RTVSPropertyOp35
 70
     1
102
RTVSPropertyOp36
 70
     1
102
RTVSPropertyOp37
 70
     1
102
RTVSPropertyOp38
 70
     1
102
RTVSPropertyOp39
 70
     1
102
RTVSPropertyOp40
 70
     1
102
RTVSPropertyOp41
 70
     1
102
RTVSPropertyOp42
 70
     1
102
RTVSPropertyOp43
 70
     1
102
RTVSPropertyOp44
 70
     1
102
RTVSPropertyOp45
 70
     1
102
RTVSPropertyOp46
 70
     1
102
RTVSPropertyOp47
 70
     1
102
RTVSPropertyOp48
 70
     1
102
RTVSPropertyOp49
 70
     1
102
RTVSPropertyOp50
 70
     1
102
RTVSPropertyOp51
 70
     0
102
RTVSPropertyOp52
 70
     0
102
RTVSPropertyOp53
 70
     1
102
RTVSPropertyOp54
 70
     1
102
RTVSPropertyOp55
 70
     1
102
RTVSPropertyOp56
 70
     1
102
RTVSPropertyOp57
 70
     1
102
RTVSPost2010Prop28
280
     0
102
RTVSPost2010PropOp28
 70
     1
102
RTVSPost2010Prop29
280
     1
102
RTVSPost2010PropOp29
 70
     1
102
RTVSPost2010Prop30
280
     1
102
RTVSPost2010PropOp30
 70
     1
102
RTVSPost2010Prop31
280
     0
102
RTVSPost2010PropOp31
 70
     1
102
RTVSPost2010Prop32
280
     0
102
RTVSPost2010PropOp32
 70
     1
102
RTVSPost2010Prop33
280
     0
102
RTVSPost2010PropOp33
 70
     1
102
RTVSPost2010Prop34
280
     0
102
RTVSPost2010PropOp34
 70
     1
102
RTVSPost2010Prop35
280
     0
102
RTVSPost2010PropOp35
 70
     1
102
RTVSPost2010Prop36
280
     0
102
RTVSPost2010PropOp36
 70
     1
102
RTVSPost2010Prop37
 90
       50
102
RTVSPost2010PropOp37
 70
     1
102
RTVSPost2010Prop38
140
0.0
102
RTVSPost2010PropOp38
 70
     1
102
RTVSPost2010Prop39
140
1.0
102
RTVSPost2010PropOp39
 70
     1
102
RTVSPost2010Prop40
 90
        0
102
RTVSPost2010PropOp40
 70
     1
102
RTVSPost2010Prop41ColorIndex
 90
       18
102
RTVSPost2010Prop41ColorRGB
 90
        0
102
RTVSPost2010PropOp41
 70
     1
102
RTVSPost2010Prop42
 90
       50
102
RTVSPost2010PropOp42
 70
     1
102
RTVSPost2010Prop43
 90
        3
102
RTVSPost2010PropOp43
 70
     1
102
RTVSPost2010Prop44ColorIndex
 90
        5
102
RTVSPost2010Prop44ColorRGB
 90
      255
102
RTVSPost2010PropOp44
 70
     1
102
RTVSPost2010Prop45
280
     0
102
RTVSPost2010PropOp45
 70
     1
102
RTVSPost2010Prop46
 90
       50
102
RTVSPost2010PropOp46
 70
     1
102
RTVSPost2010Prop47
 90
       50
102
RTVSPost2010PropOp47
 70
     1
102
RTVSPost2010Prop48
 90
       50
102
RTVSPost2010PropOp48
 70
     1
102
RTVSPost2010Prop49
280
     0
102
RTVSPost2010PropOp49
 70
     1
102
RTVSPost2010Prop50
 90
       50
102
RTVSPost2010PropOp50
 70
     1
102
RTVSPost2010Prop51ColorIndex
 90
      256
102
RTVSPost2010Prop51ColorRGB
 90
-16777216
102
RTVSPost2010PropOp51
 70
     0
102
RTVSPost2010Prop52
140
1.0
102
RTVSPost2010PropOp52
 70
     0
102
RTVSPost2010Prop53
 90
        2
102
RTVSPost2010PropOp53
 70
     1
102
RTVSPost2010Prop54
  1
strokes_ogs.tif
102
RTVSPost2010PropOp54
 70
     1
102
RTVSPost2010Prop55
280
     0
102
RTVSPost2010PropOp55
 70
     1
102
RTVSPost2010Prop56
140
1.0
102
RTVSPost2010PropOp56
 70
     1
102
RTVSPost2010Prop57
140
1.0
102
RTVSPost2010PropOp57
 70
     1
  0
XRECORD
  5
349
102
{ACAD_REACTORS
330
348
102
}
330
348
100
AcDbXrecord
280
     1
102
RTVSPropertyOp0
 70
     1
102
RTVSPropertyOp1
 70
     1
102
RTVSPropertyOp2
 70
     1
102
RTVSPropertyOp3
 70
     1
102
RTVSPropertyOp4
 70
     1
102
RTVSPropertyOp5
 70
     1
102
RTVSPropertyOp6
 70
     1
102
RTVSPropertyOp7
 70
     1
102
RTVSPropertyOp8
 70
     1
102
RTVSPropertyOp9
 70
     1
102
RTVSPropertyOp10
 70
     1
102
RTVSPropertyOp11
 70
     1
102
RTVSPropertyOp12
 70
     1
102
RTVSPropertyOp13
 70
     1
102
RTVSPropertyOp14
 70
     1
102
RTVSPropertyOp15
 70
     1
102
RTVSPropertyOp16
 70
     1
102
RTVSPropertyOp17
 70
     1
102
RTVSPropertyOp18
 70
     1
102
RTVSPropertyOp19
 70
     1
102
RTVSPropertyOp20
 70
     1
102
RTVSPropertyOp21
 70
     1
102
RTVSPropertyOp22
 70
     1
102
RTVSPropertyOp23
 70
     1
102
RTVSPropertyOp24
 70
     1
102
RTVSPropertyOp25
 70
     1
102
RTVSPropertyOp26
 70
     1
102
RTVSPropertyOp27
 70
     1
102
RTVSPropertyOp28
 70
     1
102
RTVSPropertyOp29
 70
     1
102
RTVSPropertyOp30
 70
     1
102
RTVSPropertyOp31
 70
     1
102
RTVSPropertyOp32
 70
     1
102
RTVSPropertyOp33
 70
     1
102
RTVSPropertyOp34
 70
     1
102
RTVSPropertyOp35
 70
     1
102
RTVSPropertyOp36
 70
     1
102
RTVSPropertyOp37
 70
     1
102
RTVSPropertyOp38
 70
     1
102
RTVSPropertyOp39
 70
     1
102
RTVSPropertyOp40
 70
     1
102
RTVSPropertyOp41
 70
     1
102
RTVSPropertyOp42
 70
     1
102
RTVSPropertyOp43
 70
     1
102
RTVSPropertyOp44
 70
     1
102
RTVSPropertyOp45
 70
     1
102
RTVSPropertyOp46
 70
     1
102
RTVSPropertyOp47
 70
     1
102
RTVSPropertyOp48
 70
     1
102
RTVSPropertyOp49
 70
     1
102
RTVSPropertyOp50
 70
     1
102
RTVSPropertyOp51
 70
     0
102
RTVSPropertyOp52
 70
     0
102
RTVSPropertyOp53
 70
     1
102
RTVSPropertyOp54
 70
     1
102
RTVSPropertyOp55
 70
     1
102
RTVSPropertyOp56
 70
     1
102
RTVSPropertyOp57
 70
     1
102
RTVSPost2010Prop28
280
     0
102
RTVSPost2010PropOp28
 70
     1
102
RTVSPost2010Prop29
280
     1
102
RTVSPost2010PropOp29
 70
     1
102
RTVSPost2010Prop30
280
     1
102
RTVSPost2010PropOp30
 70
     1
102
RTVSPost2010Prop31
280
     0
102
RTVSPost2010PropOp31
 70
     1
102
RTVSPost2010Prop32
280
     0
102
RTVSPost2010PropOp32
 70
     1
102
RTVSPost2010Prop33
280
     0
102
RTVSPost2010PropOp33
 70
     1
102
RTVSPost2010Prop34
280
     0
102
RTVSPost2010PropOp34
 70
     1
102
RTVSPost2010Prop35
280
     0
102
RTVSPost2010PropOp35
 70
     1
102
RTVSPost2010Prop36
280
     0
102
RTVSPost2010PropOp36
 70
     1
102
RTVSPost2010Prop37
 90
       50
102
RTVSPost2010PropOp37
 70
     1
102
RTVSPost2010Prop38
140
0.0
102
RTVSPost2010PropOp38
 70
     1
102
RTVSPost2010Prop39
140
1.0
102
RTVSPost2010PropOp39
 70
     1
102
RTVSPost2010Prop40
 90
        0
102
RTVSPost2010PropOp40
 70
     1
102
RTVSPost2010Prop41ColorIndex
 90
       18
102
RTVSPost2010Prop41ColorRGB
 90
        0
102
RTVSPost2010PropOp41
 70
     1
102
RTVSPost2010Prop42
 90
       50
102
RTVSPost2010PropOp42
 70
     1
102
RTVSPost2010Prop43
 90
        3
102
RTVSPost2010PropOp43
 70
     1
102
RTVSPost2010Prop44ColorIndex
 90
        5
102
RTVSPost2010Prop44ColorRGB
 90
      255
102
RTVSPost2010PropOp44
 70
     1
102
RTVSPost2010Prop45
280
     0
102
RTVSPost2010PropOp45
 70
     1
102
RTVSPost2010Prop46
 90
       50
102
RTVSPost2010PropOp46
 70
     1
102
RTVSPost2010Prop47
 90
       50
102
RTVSPost2010PropOp47
 70
     1
102
RTVSPost2010Prop48
 90
       50
102
RTVSPost2010PropOp48
 70
     1
102
RTVSPost2010Prop49
280
     0
102
RTVSPost2010PropOp49
 70
     1
102
RTVSPost2010Prop50
 90
       50
102
RTVSPost2010PropOp50
 70
     1
102
RTVSPost2010Prop51ColorIndex
 90
      256
102
RTVSPost2010Prop51ColorRGB
 90
-16777216
102
RTVSPost2010PropOp51
 70
     0
102
RTVSPost2010Prop52
140
1.0
102
RTVSPost2010PropOp52
 70
     0
102
RTVSPost2010Prop53
 90
        2
102
RTVSPost2010PropOp53
 70
     1
102
RTVSPost2010Prop54
  1
strokes_ogs.tif
102
RTVSPost2010PropOp54
 70
     1
102
RTVSPost2010Prop55
280
     0
102
RTVSPost2010PropOp55
 70
     1
102
RTVSPost2010Prop56
140
1.0
102
RTVSPost2010PropOp56
 70
     1
102
RTVSPost2010Prop57
140
1.0
102
RTVSPost2010PropOp57
 70
     1
  0
XRECORD
  5
34B
102
{ACAD_REACTORS
330
34A
102
}
330
34A
100
AcDbXrecord
280
     1
102
RTVSPropertyOp0
 70
     1
102
RTVSPropertyOp1
 70
     1
102
RTVSPropertyOp2
 70
     1
102
RTVSPropertyOp3
 70
     1
102
RTVSPropertyOp4
 70
     1
102
RTVSPropertyOp5
 70
     1
102
RTVSPropertyOp6
 70
     1
102
RTVSPropertyOp7
 70
     1
102
RTVSPropertyOp8
 70
     1
102
RTVSPropertyOp9
 70
     1
102
RTVSPropertyOp10
 70
     1
102
RTVSPropertyOp11
 70
     1
102
RTVSPropertyOp12
 70
     1
102
RTVSPropertyOp13
 70
     1
102
RTVSPropertyOp14
 70
     1
102
RTVSPropertyOp15
 70
     1
102
RTVSPropertyOp16
 70
     1
102
RTVSPropertyOp17
 70
     1
102
RTVSPropertyOp18
 70
     1
102
RTVSPropertyOp19
 70
     1
102
RTVSPropertyOp20
 70
     1
102
RTVSPropertyOp21
 70
     1
102
RTVSPropertyOp22
 70
     1
102
RTVSPropertyOp23
 70
     1
102
RTVSPropertyOp24
 70
     1
102
RTVSPropertyOp25
 70
     1
102
RTVSPropertyOp26
 70
     1
102
RTVSPropertyOp27
 70
     1
102
RTVSPropertyOp28
 70
     1
102
RTVSPropertyOp29
 70
     1
102
RTVSPropertyOp30
 70
     1
102
RTVSPropertyOp31
 70
     1
102
RTVSPropertyOp32
 70
     1
102
RTVSPropertyOp33
 70
     1
102
RTVSPropertyOp34
 70
     1
102
RTVSPropertyOp35
 70
     1
102
RTVSPropertyOp36
 70
     1
102
RTVSPropertyOp37
 70
     1
102
RTVSPropertyOp38
 70
     1
102
RTVSPropertyOp39
 70
     1
102
RTVSPropertyOp40
 70
     1
102
RTVSPropertyOp41
 70
     1
102
RTVSPropertyOp42
 70
     1
102
RTVSPropertyOp43
 70
     1
102
RTVSPropertyOp44
 70
     1
102
RTVSPropertyOp45
 70
     1
102
RTVSPropertyOp46
 70
     1
102
RTVSPropertyOp47
 70
     1
102
RTVSPropertyOp48
 70
     1
102
RTVSPropertyOp49
 70
     1
102
RTVSPropertyOp50
 70
     1
102
RTVSPropertyOp51
 70
     0
102
RTVSPropertyOp52
 70
     0
102
RTVSPropertyOp53
 70
     1
102
RTVSPropertyOp54
 70
     1
102
RTVSPropertyOp55
 70
     1
102
RTVSPropertyOp56
 70
     1
102
RTVSPropertyOp57
 70
     1
102
RTVSPost2010Prop28
280
     0
102
RTVSPost2010PropOp28
 70
     1
102
RTVSPost2010Prop29
280
     1
102
RTVSPost2010PropOp29
 70
     1
102
RTVSPost2010Prop30
280
     1
102
RTVSPost2010PropOp30
 70
     1
102
RTVSPost2010Prop31
280
     0
102
RTVSPost2010PropOp31
 70
     1
102
RTVSPost2010Prop32
280
     0
102
RTVSPost2010PropOp32
 70
     1
102
RTVSPost2010Prop33
280
     0
102
RTVSPost2010PropOp33
 70
     1
102
RTVSPost2010Prop34
280
     0
102
RTVSPost2010PropOp34
 70
     1
102
RTVSPost2010Prop35
280
     0
102
RTVSPost2010PropOp35
 70
     1
102
RTVSPost2010Prop36
280
     0
102
RTVSPost2010PropOp36
 70
     1
102
RTVSPost2010Prop37
 90
       50
102
RTVSPost2010PropOp37
 70
     1
102
RTVSPost2010Prop38
140
0.0
102
RTVSPost2010PropOp38
 70
     1
102
RTVSPost2010Prop39
140
1.0
102
RTVSPost2010PropOp39
 70
     1
102
RTVSPost2010Prop40
 90
        0
102
RTVSPost2010PropOp40
 70
     1
102
RTVSPost2010Prop41ColorIndex
 90
       18
102
RTVSPost2010Prop41ColorRGB
 90
        0
102
RTVSPost2010PropOp41
 70
     1
102
RTVSPost2010Prop42
 90
       50
102
RTVSPost2010PropOp42
 70
     1
102
RTVSPost2010Prop43
 90
        3
102
RTVSPost2010PropOp43
 70
     1
102
RTVSPost2010Prop44ColorIndex
 90
        5
102
RTVSPost2010Prop44ColorRGB
 90
      255
102
RTVSPost2010PropOp44
 70
     1
102
RTVSPost2010Prop45
280
     0
102
RTVSPost2010PropOp45
 70
     1
102
RTVSPost2010Prop46
 90
       50
102
RTVSPost2010PropOp46
 70
     1
102
RTVSPost2010Prop47
 90
       50
102
RTVSPost2010PropOp47
 70
     1
102
RTVSPost2010Prop48
 90
       50
102
RTVSPost2010PropOp48
 70
     1
102
RTVSPost2010Prop49
280
     0
102
RTVSPost2010PropOp49
 70
     1
102
RTVSPost2010Prop50
 90
       50
102
RTVSPost2010PropOp50
 70
     1
102
RTVSPost2010Prop51ColorIndex
 90
      256
102
RTVSPost2010Prop51ColorRGB
 90
-16777216
102
RTVSPost2010PropOp51
 70
     0
102
RTVSPost2010Prop52
140
1.0
102
RTVSPost2010PropOp52
 70
     0
102
RTVSPost2010Prop53
 90
        2
102
RTVSPost2010PropOp53
 70
     1
102
RTVSPost2010Prop54
  1
strokes_ogs.tif
102
RTVSPost2010PropOp54
 70
     1
102
RTVSPost2010Prop55
280
     0
102
RTVSPost2010PropOp55
 70
     1
102
RTVSPost2010Prop56
140
1.0
102
RTVSPost2010PropOp56
 70
     1
102
RTVSPost2010Prop57
140
1.0
102
RTVSPost2010PropOp57
 70
     1
  0
XRECORD
  5
35B
102
{ACAD_REACTORS
330
35A
102
}
330
35A
100
AcDbXrecord
280
     1
102
RTVSPropertyOp0
 70
     0
102
RTVSPropertyOp1
 70
     0
102
RTVSPropertyOp2
 70
     0
102
RTVSPropertyOp3
 70
     0
102
RTVSPropertyOp4
 70
     0
102
RTVSPropertyOp5
 70
     0
102
RTVSPropertyOp6
 70
     0
102
RTVSPropertyOp7
 70
     0
102
RTVSPropertyOp8
 70
     0
102
RTVSPropertyOp9
 70
     0
102
RTVSPropertyOp10
 70
     0
102
RTVSPropertyOp11
 70
     0
102
RTVSPropertyOp12
 70
     0
102
RTVSPropertyOp13
 70
     0
102
RTVSPropertyOp14
 70
     2
102
RTVSPropertyOp15
 70
     0
102
RTVSPropertyOp16
 70
     0
102
RTVSPropertyOp17
 70
     0
102
RTVSPropertyOp18
 70
     0
102
RTVSPropertyOp19
 70
     0
102
RTVSPropertyOp20
 70
     0
102
RTVSPropertyOp21
 70
     0
102
RTVSPropertyOp22
 70
     0
102
RTVSPropertyOp23
 70
     0
102
RTVSPropertyOp24
 70
     0
102
RTVSPropertyOp25
 70
     0
102
RTVSPropertyOp26
 70
     0
102
RTVSPropertyOp27
 70
     0
102
RTVSPropertyOp28
 70
     0
102
RTVSPropertyOp29
 70
     0
102
RTVSPropertyOp30
 70
     0
102
RTVSPropertyOp31
 70
     0
102
RTVSPropertyOp32
 70
     0
102
RTVSPropertyOp33
 70
     0
102
RTVSPropertyOp34
 70
     0
102
RTVSPropertyOp35
 70
     0
102
RTVSPropertyOp36
 70
     0
102
RTVSPropertyOp37
 70
     0
102
RTVSPropertyOp38
 70
     0
102
RTVSPropertyOp39
 70
     0
102
RTVSPropertyOp40
 70
     0
102
RTVSPropertyOp41
 70
     0
102
RTVSPropertyOp42
 70
     0
102
RTVSPropertyOp43
 70
     0
102
RTVSPropertyOp44
 70
     0
102
RTVSPropertyOp45
 70
     0
102
RTVSPropertyOp46
 70
     0
102
RTVSPropertyOp47
 70
     0
102
RTVSPropertyOp48
 70
     0
102
RTVSPropertyOp49
 70
     0
102
RTVSPropertyOp50
 70
     0
102
RTVSPropertyOp51
 70
     0
102
RTVSPropertyOp52
 70
     0
102
RTVSPropertyOp53
 70
     0
102
RTVSPropertyOp54
 70
     0
102
RTVSPropertyOp55
 70
     0
102
RTVSPropertyOp56
 70
     0
102
RTVSPropertyOp57
 70
     0
102
RTVSPost2010Prop28
280
     0
102
RTVSPost2010PropOp28
 70
     0
102
RTVSPost2010Prop29
280
     1
102
RTVSPost2010PropOp29
 70
     0
102
RTVSPost2010Prop30
280
     1
102
RTVSPost2010PropOp30
 70
     0
102
RTVSPost2010Prop31
280
     0
102
RTVSPost2010PropOp31
 70
     0
102
RTVSPost2010Prop32
280
     0
102
RTVSPost2010PropOp32
 70
     0
102
RTVSPost2010Prop33
280
     0
102
RTVSPost2010PropOp33
 70
     0
102
RTVSPost2010Prop34
280
     0
102
RTVSPost2010PropOp34
 70
     0
102
RTVSPost2010Prop35
280
     0
102
RTVSPost2010PropOp35
 70
     0
102
RTVSPost2010Prop36
280
     0
102
RTVSPost2010PropOp36
 70
     0
102
RTVSPost2010Prop37
 90
       50
102
RTVSPost2010PropOp37
 70
     0
102
RTVSPost2010Prop38
140
0.0
102
RTVSPost2010PropOp38
 70
     0
102
RTVSPost2010Prop39
140
1.0
102
RTVSPost2010PropOp39
 70
     0
102
RTVSPost2010Prop40
 90
        0
102
RTVSPost2010PropOp40
 70
     0
102
RTVSPost2010Prop41ColorIndex
 90
       18
102
RTVSPost2010Prop41ColorRGB
 90
        0
102
RTVSPost2010PropOp41
 70
     0
102
RTVSPost2010Prop42
 90
       50
102
RTVSPost2010PropOp42
 70
     0
102
RTVSPost2010Prop43
 90
        3
102
RTVSPost2010PropOp43
 70
     0
102
RTVSPost2010Prop44ColorIndex
 90
        5
102
RTVSPost2010Prop44ColorRGB
 90
      255
102
RTVSPost2010PropOp44
 70
     0
102
RTVSPost2010Prop45
280
     0
102
RTVSPost2010PropOp45
 70
     0
102
RTVSPost2010Prop46
 90
       50
102
RTVSPost2010PropOp46
 70
     0
102
RTVSPost2010Prop47
 90
       50
102
RTVSPost2010PropOp47
 70
     0
102
RTVSPost2010Prop48
 90
       50
102
RTVSPost2010PropOp48
 70
     0
102
RTVSPost2010Prop49
280
     0
102
RTVSPost2010PropOp49
 70
     0
102
RTVSPost2010Prop50
 90
       50
102
RTVSPost2010PropOp50
 70
     0
102
RTVSPost2010Prop51ColorIndex
 90
      256
102
RTVSPost2010Prop51ColorRGB
 90
-16777216
102
RTVSPost2010PropOp51
 70
     0
102
RTVSPost2010Prop52
140
1.0
102
RTVSPost2010PropOp52
 70
     0
102
RTVSPost2010Prop53
 90
        2
102
RTVSPost2010PropOp53
 70
     0
102
RTVSPost2010Prop54
  1
strokes_ogs.tif
102
RTVSPost2010PropOp54
 70
     0
102
RTVSPost2010Prop55
280
     0
102
RTVSPost2010PropOp55
 70
     0
102
RTVSPost2010Prop56
140
1.0
102
RTVSPost2010PropOp56
 70
     0
102
RTVSPost2010Prop57
140
1.0
102
RTVSPost2010PropOp57
 70
     0
  0
XRECORD
  5
353
102
{ACAD_REACTORS
330
352
102
}
330
352
100
AcDbXrecord
280
     1
102
RTVSPropertyOp0
 70
     1
102
RTVSPropertyOp1
 70
     1
102
RTVSPropertyOp2
 70
     1
102
RTVSPropertyOp3
 70
     1
102
RTVSPropertyOp4
 70
     1
102
RTVSPropertyOp5
 70
     1
102
RTVSPropertyOp6
 70
     1
102
RTVSPropertyOp7
 70
     1
102
RTVSPropertyOp8
 70
     1
102
RTVSPropertyOp9
 70
     1
102
RTVSPropertyOp10
 70
     1
102
RTVSPropertyOp11
 70
     1
102
RTVSPropertyOp12
 70
     1
102
RTVSPropertyOp13
 70
     1
102
RTVSPropertyOp14
 70
     1
102
RTVSPropertyOp15
 70
     1
102
RTVSPropertyOp16
 70
     1
102
RTVSPropertyOp17
 70
     1
102
RTVSPropertyOp18
 70
     1
102
RTVSPropertyOp19
 70
     1
102
RTVSPropertyOp20
 70
     1
102
RTVSPropertyOp21
 70
     1
102
RTVSPropertyOp22
 70
     1
102
RTVSPropertyOp23
 70
     1
102
RTVSPropertyOp24
 70
     1
102
RTVSPropertyOp25
 70
     1
102
RTVSPropertyOp26
 70
     1
102
RTVSPropertyOp27
 70
     1
102
RTVSPropertyOp28
 70
     1
102
RTVSPropertyOp29
 70
     1
102
RTVSPropertyOp30
 70
     1
102
RTVSPropertyOp31
 70
     1
102
RTVSPropertyOp32
 70
     1
102
RTVSPropertyOp33
 70
     1
102
RTVSPropertyOp34
 70
     1
102
RTVSPropertyOp35
 70
     1
102
RTVSPropertyOp36
 70
     1
102
RTVSPropertyOp37
 70
     1
102
RTVSPropertyOp38
 70
     1
102
RTVSPropertyOp39
 70
     1
102
RTVSPropertyOp40
 70
     1
102
RTVSPropertyOp41
 70
     1
102
RTVSPropertyOp42
 70
     1
102
RTVSPropertyOp43
 70
     1
102
RTVSPropertyOp44
 70
     1
102
RTVSPropertyOp45
 70
     1
102
RTVSPropertyOp46
 70
     1
102
RTVSPropertyOp47
 70
     1
102
RTVSPropertyOp48
 70
     1
102
RTVSPropertyOp49
 70
     1
102
RTVSPropertyOp50
 70
     1
102
RTVSPropertyOp51
 70
     0
102
RTVSPropertyOp52
 70
     0
102
RTVSPropertyOp53
 70
     1
102
RTVSPropertyOp54
 70
     1
102
RTVSPropertyOp55
 70
     1
102
RTVSPropertyOp56
 70
     1
102
RTVSPropertyOp57
 70
     1
102
RTVSPost2010Prop28
280
     0
102
RTVSPost2010PropOp28
 70
     1
102
RTVSPost2010Prop29
280
     1
102
RTVSPost2010PropOp29
 70
     1
102
RTVSPost2010Prop30
280
     1
102
RTVSPost2010PropOp30
 70
     1
102
RTVSPost2010Prop31
280
     0
102
RTVSPost2010PropOp31
 70
     1
102
RTVSPost2010Prop32
280
     0
102
RTVSPost2010PropOp32
 70
     1
102
RTVSPost2010Prop33
280
     0
102
RTVSPost2010PropOp33
 70
     1
102
RTVSPost2010Prop34
280
     0
102
RTVSPost2010PropOp34
 70
     1
102
RTVSPost2010Prop35
280
     0
102
RTVSPost2010PropOp35
 70
     1
102
RTVSPost2010Prop36
280
     0
102
RTVSPost2010PropOp36
 70
     1
102
RTVSPost2010Prop37
 90
       50
102
RTVSPost2010PropOp37
 70
     1
102
RTVSPost2010Prop38
140
0.0
102
RTVSPost2010PropOp38
 70
     1
102
RTVSPost2010Prop39
140
1.0
102
RTVSPost2010PropOp39
 70
     1
102
RTVSPost2010Prop40
 90
        0
102
RTVSPost2010PropOp40
 70
     1
102
RTVSPost2010Prop41ColorIndex
 90
       18
102
RTVSPost2010Prop41ColorRGB
 90
        0
102
RTVSPost2010PropOp41
 70
     1
102
RTVSPost2010Prop42
 90
       50
102
RTVSPost2010PropOp42
 70
     1
102
RTVSPost2010Prop43
 90
        3
102
RTVSPost2010PropOp43
 70
     1
102
RTVSPost2010Prop44ColorIndex
 90
        5
102
RTVSPost2010Prop44ColorRGB
 90
      255
102
RTVSPost2010PropOp44
 70
     1
102
RTVSPost2010Prop45
280
     0
102
RTVSPost2010PropOp45
 70
     1
102
RTVSPost2010Prop46
 90
       50
102
RTVSPost2010PropOp46
 70
     1
102
RTVSPost2010Prop47
 90
       50
102
RTVSPost2010PropOp47
 70
     1
102
RTVSPost2010Prop48
 90
       50
102
RTVSPost2010PropOp48
 70
     1
102
RTVSPost2010Prop49
280
     0
102
RTVSPost2010PropOp49
 70
     1
102
RTVSPost2010Prop50
 90
       50
102
RTVSPost2010PropOp50
 70
     1
102
RTVSPost2010Prop51ColorIndex
 90
      256
102
RTVSPost2010Prop51ColorRGB
 90
-16777216
102
RTVSPost2010PropOp51
 70
     0
102
RTVSPost2010Prop52
140
1.0
102
RTVSPost2010PropOp52
 70
     0
102
RTVSPost2010Prop53
 90
        2
102
RTVSPost2010PropOp53
 70
     1
102
RTVSPost2010Prop54
  1
strokes_ogs.tif
102
RTVSPost2010PropOp54
 70
     1
102
RTVSPost2010Prop55
280
     0
102
RTVSPost2010PropOp55
 70
     1
102
RTVSPost2010Prop56
140
1.0
102
RTVSPost2010PropOp56
 70
     1
102
RTVSPost2010Prop57
140
1.0
102
RTVSPost2010PropOp57
 70
     1
  0
XRECORD
  5
337
102
{ACAD_REACTORS
330
336
102
}
330
336
100
AcDbXrecord
280
     1
102
RTVSPropertyOp0
 70
     1
102
RTVSPropertyOp1
 70
     1
102
RTVSPropertyOp2
 70
     1
102
RTVSPropertyOp3
 70
     1
102
RTVSPropertyOp4
 70
     1
102
RTVSPropertyOp5
 70
     1
102
RTVSPropertyOp6
 70
     1
102
RTVSPropertyOp7
 70
     1
102
RTVSPropertyOp8
 70
     1
102
RTVSPropertyOp9
 70
     1
102
RTVSPropertyOp10
 70
     1
102
RTVSPropertyOp11
 70
     1
102
RTVSPropertyOp12
 70
     1
102
RTVSPropertyOp13
 70
     1
102
RTVSPropertyOp14
 70
     1
102
RTVSPropertyOp15
 70
     1
102
RTVSPropertyOp16
 70
     1
102
RTVSPropertyOp17
 70
     1
102
RTVSPropertyOp18
 70
     1
102
RTVSPropertyOp19
 70
     1
102
RTVSPropertyOp20
 70
     1
102
RTVSPropertyOp21
 70
     1
102
RTVSPropertyOp22
 70
     1
102
RTVSPropertyOp23
 70
     1
102
RTVSPropertyOp24
 70
     1
102
RTVSPropertyOp25
 70
     1
102
RTVSPropertyOp26
 70
     1
102
RTVSPropertyOp27
 70
     1
102
RTVSPropertyOp28
 70
     1
102
RTVSPropertyOp29
 70
     1
102
RTVSPropertyOp30
 70
     1
102
RTVSPropertyOp31
 70
     1
102
RTVSPropertyOp32
 70
     1
102
RTVSPropertyOp33
 70
     1
102
RTVSPropertyOp34
 70
     1
102
RTVSPropertyOp35
 70
     1
102
RTVSPropertyOp36
 70
     1
102
RTVSPropertyOp37
 70
     1
102
RTVSPropertyOp38
 70
     1
102
RTVSPropertyOp39
 70
     1
102
RTVSPropertyOp40
 70
     1
102
RTVSPropertyOp41
 70
     1
102
RTVSPropertyOp42
 70
     1
102
RTVSPropertyOp43
 70
     1
102
RTVSPropertyOp44
 70
     1
102
RTVSPropertyOp45
 70
     1
102
RTVSPropertyOp46
 70
     1
102
RTVSPropertyOp47
 70
     1
102
RTVSPropertyOp48
 70
     1
102
RTVSPropertyOp49
 70
     1
102
RTVSPropertyOp50
 70
     1
102
RTVSPropertyOp51
 70
     0
102
RTVSPropertyOp52
 70
     0
102
RTVSPropertyOp53
 70
     1
102
RTVSPropertyOp54
 70
     1
102
RTVSPropertyOp55
 70
     1
102
RTVSPropertyOp56
 70
     1
102
RTVSPropertyOp57
 70
     1
102
RTVSPost2010Prop28
280
     0
102
RTVSPost2010PropOp28
 70
     1
102
RTVSPost2010Prop29
280
     1
102
RTVSPost2010PropOp29
 70
     1
102
RTVSPost2010Prop30
280
     1
102
RTVSPost2010PropOp30
 70
     1
102
RTVSPost2010Prop31
280
     0
102
RTVSPost2010PropOp31
 70
     1
102
RTVSPost2010Prop32
280
     0
102
RTVSPost2010PropOp32
 70
     1
102
RTVSPost2010Prop33
280
     0
102
RTVSPost2010PropOp33
 70
     1
102
RTVSPost2010Prop34
280
     0
102
RTVSPost2010PropOp34
 70
     1
102
RTVSPost2010Prop35
280
     0
102
RTVSPost2010PropOp35
 70
     1
102
RTVSPost2010Prop36
280
     0
102
RTVSPost2010PropOp36
 70
     1
102
RTVSPost2010Prop37
 90
       50
102
RTVSPost2010PropOp37
 70
     1
102
RTVSPost2010Prop38
140
0.0
102
RTVSPost2010PropOp38
 70
     1
102
RTVSPost2010Prop39
140
1.0
102
RTVSPost2010PropOp39
 70
     1
102
RTVSPost2010Prop40
 90
        0
102
RTVSPost2010PropOp40
 70
     1
102
RTVSPost2010Prop41ColorIndex
 90
       18
102
RTVSPost2010Prop41ColorRGB
 90
        0
102
RTVSPost2010PropOp41
 70
     1
102
RTVSPost2010Prop42
 90
       50
102
RTVSPost2010PropOp42
 70
     1
102
RTVSPost2010Prop43
 90
        3
102
RTVSPost2010PropOp43
 70
     1
102
RTVSPost2010Prop44ColorIndex
 90
        5
102
RTVSPost2010Prop44ColorRGB
 90
      255
102
RTVSPost2010PropOp44
 70
     1
102
RTVSPost2010Prop45
280
     0
102
RTVSPost2010PropOp45
 70
     1
102
RTVSPost2010Prop46
 90
       50
102
RTVSPost2010PropOp46
 70
     1
102
RTVSPost2010Prop47
 90
       50
102
RTVSPost2010PropOp47
 70
     1
102
RTVSPost2010Prop48
 90
       50
102
RTVSPost2010PropOp48
 70
     1
102
RTVSPost2010Prop49
280
     0
102
RTVSPost2010PropOp49
 70
     1
102
RTVSPost2010Prop50
 90
       50
102
RTVSPost2010PropOp50
 70
     1
102
RTVSPost2010Prop51ColorIndex
 90
      256
102
RTVSPost2010Prop51ColorRGB
 90
-16777216
102
RTVSPost2010PropOp51
 70
     0
102
RTVSPost2010Prop52
140
1.0
102
RTVSPost2010PropOp52
 70
     0
102
RTVSPost2010Prop53
 90
        2
102
RTVSPost2010PropOp53
 70
     1
102
RTVSPost2010Prop54
  1
strokes_ogs.tif
102
RTVSPost2010PropOp54
 70
     1
102
RTVSPost2010Prop55
280
     0
102
RTVSPost2010PropOp55
 70
     1
102
RTVSPost2010Prop56
140
1.0
102
RTVSPost2010PropOp56
 70
     1
102
RTVSPost2010Prop57
140
1.0
102
RTVSPost2010PropOp57
 70
     1
  0
XRECORD
  5
339
102
{ACAD_REACTORS
330
338
102
}
330
338
100
AcDbXrecord
280
     1
102
RTVSPropertyOp0
 70
     1
102
RTVSPropertyOp1
 70
     1
102
RTVSPropertyOp2
 70
     1
102
RTVSPropertyOp3
 70
     1
102
RTVSPropertyOp4
 70
     1
102
RTVSPropertyOp5
 70
     1
102
RTVSPropertyOp6
 70
     1
102
RTVSPropertyOp7
 70
     1
102
RTVSPropertyOp8
 70
     1
102
RTVSPropertyOp9
 70
     1
102
RTVSPropertyOp10
 70
     1
102
RTVSPropertyOp11
 70
     1
102
RTVSPropertyOp12
 70
     1
102
RTVSPropertyOp13
 70
     1
102
RTVSPropertyOp14
 70
     1
102
RTVSPropertyOp15
 70
     1
102
RTVSPropertyOp16
 70
     1
102
RTVSPropertyOp17
 70
     1
102
RTVSPropertyOp18
 70
     1
102
RTVSPropertyOp19
 70
     1
102
RTVSPropertyOp20
 70
     1
102
RTVSPropertyOp21
 70
     1
102
RTVSPropertyOp22
 70
     1
102
RTVSPropertyOp23
 70
     1
102
RTVSPropertyOp24
 70
     1
102
RTVSPropertyOp25
 70
     1
102
RTVSPropertyOp26
 70
     1
102
RTVSPropertyOp27
 70
     1
102
RTVSPropertyOp28
 70
     1
102
RTVSPropertyOp29
 70
     1
102
RTVSPropertyOp30
 70
     1
102
RTVSPropertyOp31
 70
     1
102
RTVSPropertyOp32
 70
     1
102
RTVSPropertyOp33
 70
     1
102
RTVSPropertyOp34
 70
     1
102
RTVSPropertyOp35
 70
     1
102
RTVSPropertyOp36
 70
     1
102
RTVSPropertyOp37
 70
     1
102
RTVSPropertyOp38
 70
     1
102
RTVSPropertyOp39
 70
     1
102
RTVSPropertyOp40
 70
     1
102
RTVSPropertyOp41
 70
     1
102
RTVSPropertyOp42
 70
     1
102
RTVSPropertyOp43
 70
     1
102
RTVSPropertyOp44
 70
     1
102
RTVSPropertyOp45
 70
     1
102
RTVSPropertyOp46
 70
     1
102
RTVSPropertyOp47
 70
     1
102
RTVSPropertyOp48
 70
     1
102
RTVSPropertyOp49
 70
     1
102
RTVSPropertyOp50
 70
     1
102
RTVSPropertyOp51
 70
     0
102
RTVSPropertyOp52
 70
     0
102
RTVSPropertyOp53
 70
     1
102
RTVSPropertyOp54
 70
     1
102
RTVSPropertyOp55
 70
     1
102
RTVSPropertyOp56
 70
     1
102
RTVSPropertyOp57
 70
     1
102
RTVSPost2010Prop28
280
     0
102
RTVSPost2010PropOp28
 70
     1
102
RTVSPost2010Prop29
280
     1
102
RTVSPost2010PropOp29
 70
     1
102
RTVSPost2010Prop30
280
     1
102
RTVSPost2010PropOp30
 70
     1
102
RTVSPost2010Prop31
280
     0
102
RTVSPost2010PropOp31
 70
     1
102
RTVSPost2010Prop32
280
     0
102
RTVSPost2010PropOp32
 70
     1
102
RTVSPost2010Prop33
280
     0
102
RTVSPost2010PropOp33
 70
     1
102
RTVSPost2010Prop34
280
     0
102
RTVSPost2010PropOp34
 70
     1
102
RTVSPost2010Prop35
280
     0
102
RTVSPost2010PropOp35
 70
     1
102
RTVSPost2010Prop36
280
     0
102
RTVSPost2010PropOp36
 70
     1
102
RTVSPost2010Prop37
 90
       50
102
RTVSPost2010PropOp37
 70
     1
102
RTVSPost2010Prop38
140
0.0
102
RTVSPost2010PropOp38
 70
     1
102
RTVSPost2010Prop39
140
1.0
102
RTVSPost2010PropOp39
 70
     1
102
RTVSPost2010Prop40
 90
        0
102
RTVSPost2010PropOp40
 70
     1
102
RTVSPost2010Prop41ColorIndex
 90
       18
102
RTVSPost2010Prop41ColorRGB
 90
        0
102
RTVSPost2010PropOp41
 70
     1
102
RTVSPost2010Prop42
 90
       50
102
RTVSPost2010PropOp42
 70
     1
102
RTVSPost2010Prop43
 90
        3
102
RTVSPost2010PropOp43
 70
     1
102
RTVSPost2010Prop44ColorIndex
 90
        5
102
RTVSPost2010Prop44ColorRGB
 90
      255
102
RTVSPost2010PropOp44
 70
     1
102
RTVSPost2010Prop45
280
     0
102
RTVSPost2010PropOp45
 70
     1
102
RTVSPost2010Prop46
 90
       50
102
RTVSPost2010PropOp46
 70
     1
102
RTVSPost2010Prop47
 90
       50
102
RTVSPost2010PropOp47
 70
     1
102
RTVSPost2010Prop48
 90
       50
102
RTVSPost2010PropOp48
 70
     1
102
RTVSPost2010Prop49
280
     0
102
RTVSPost2010PropOp49
 70
     1
102
RTVSPost2010Prop50
 90
       50
102
RTVSPost2010PropOp50
 70
     1
102
RTVSPost2010Prop51ColorIndex
 90
      256
102
RTVSPost2010Prop51ColorRGB
 90
-16777216
102
RTVSPost2010PropOp51
 70
     0
102
RTVSPost2010Prop52
140
1.0
102
RTVSPost2010PropOp52
 70
     0
102
RTVSPost2010Prop53
 90
        2
102
RTVSPost2010PropOp53
 70
     1
102
RTVSPost2010Prop54
  1
strokes_ogs.tif
102
RTVSPost2010PropOp54
 70
     1
102
RTVSPost2010Prop55
280
     0
102
RTVSPost2010PropOp55
 70
     1
102
RTVSPost2010Prop56
140
1.0
102
RTVSPost2010PropOp56
 70
     1
102
RTVSPost2010Prop57
140
1.0
102
RTVSPost2010PropOp57
 70
     1
  0
XRECORD
  5
33B
102
{ACAD_REACTORS
330
33A
102
}
330
33A
100
AcDbXrecord
280
     1
102
RTVSPropertyOp0
 70
     1
102
RTVSPropertyOp1
 70
     1
102
RTVSPropertyOp2
 70
     1
102
RTVSPropertyOp3
 70
     1
102
RTVSPropertyOp4
 70
     1
102
RTVSPropertyOp5
 70
     1
102
RTVSPropertyOp6
 70
     1
102
RTVSPropertyOp7
 70
     1
102
RTVSPropertyOp8
 70
     1
102
RTVSPropertyOp9
 70
     1
102
RTVSPropertyOp10
 70
     1
102
RTVSPropertyOp11
 70
     1
102
RTVSPropertyOp12
 70
     1
102
RTVSPropertyOp13
 70
     1
102
RTVSPropertyOp14
 70
     1
102
RTVSPropertyOp15
 70
     1
102
RTVSPropertyOp16
 70
     1
102
RTVSPropertyOp17
 70
     1
102
RTVSPropertyOp18
 70
     1
102
RTVSPropertyOp19
 70
     1
102
RTVSPropertyOp20
 70
     1
102
RTVSPropertyOp21
 70
     1
102
RTVSPropertyOp22
 70
     1
102
RTVSPropertyOp23
 70
     1
102
RTVSPropertyOp24
 70
     1
102
RTVSPropertyOp25
 70
     1
102
RTVSPropertyOp26
 70
     1
102
RTVSPropertyOp27
 70
     1
102
RTVSPropertyOp28
 70
     1
102
RTVSPropertyOp29
 70
     1
102
RTVSPropertyOp30
 70
     1
102
RTVSPropertyOp31
 70
     1
102
RTVSPropertyOp32
 70
     1
102
RTVSPropertyOp33
 70
     1
102
RTVSPropertyOp34
 70
     1
102
RTVSPropertyOp35
 70
     1
102
RTVSPropertyOp36
 70
     1
102
RTVSPropertyOp37
 70
     1
102
RTVSPropertyOp38
 70
     1
102
RTVSPropertyOp39
 70
     1
102
RTVSPropertyOp40
 70
     1
102
RTVSPropertyOp41
 70
     1
102
RTVSPropertyOp42
 70
     1
102
RTVSPropertyOp43
 70
     1
102
RTVSPropertyOp44
 70
     1
102
RTVSPropertyOp45
 70
     1
102
RTVSPropertyOp46
 70
     1
102
RTVSPropertyOp47
 70
     1
102
RTVSPropertyOp48
 70
     1
102
RTVSPropertyOp49
 70
     1
102
RTVSPropertyOp50
 70
     1
102
RTVSPropertyOp51
 70
     0
102
RTVSPropertyOp52
 70
     0
102
RTVSPropertyOp53
 70
     1
102
RTVSPropertyOp54
 70
     1
102
RTVSPropertyOp55
 70
     1
102
RTVSPropertyOp56
 70
     1
102
RTVSPropertyOp57
 70
     1
102
RTVSPost2010Prop28
280
     0
102
RTVSPost2010PropOp28
 70
     1
102
RTVSPost2010Prop29
280
     1
102
RTVSPost2010PropOp29
 70
     1
102
RTVSPost2010Prop30
280
     1
102
RTVSPost2010PropOp30
 70
     1
102
RTVSPost2010Prop31
280
     0
102
RTVSPost2010PropOp31
 70
     1
102
RTVSPost2010Prop32
280
     0
102
RTVSPost2010PropOp32
 70
     1
102
RTVSPost2010Prop33
280
     0
102
RTVSPost2010PropOp33
 70
     1
102
RTVSPost2010Prop34
280
     0
102
RTVSPost2010PropOp34
 70
     1
102
RTVSPost2010Prop35
280
     0
102
RTVSPost2010PropOp35
 70
     1
102
RTVSPost2010Prop36
280
     0
102
RTVSPost2010PropOp36
 70
     1
102
RTVSPost2010Prop37
 90
       50
102
RTVSPost2010PropOp37
 70
     1
102
RTVSPost2010Prop38
140
0.0
102
RTVSPost2010PropOp38
 70
     1
102
RTVSPost2010Prop39
140
1.0
102
RTVSPost2010PropOp39
 70
     1
102
RTVSPost2010Prop40
 90
        0
102
RTVSPost2010PropOp40
 70
     1
102
RTVSPost2010Prop41ColorIndex
 90
       18
102
RTVSPost2010Prop41ColorRGB
 90
        0
102
RTVSPost2010PropOp41
 70
     1
102
RTVSPost2010Prop42
 90
       50
102
RTVSPost2010PropOp42
 70
     1
102
RTVSPost2010Prop43
 90
        3
102
RTVSPost2010PropOp43
 70
     1
102
RTVSPost2010Prop44ColorIndex
 90
        5
102
RTVSPost2010Prop44ColorRGB
 90
      255
102
RTVSPost2010PropOp44
 70
     1
102
RTVSPost2010Prop45
280
     0
102
RTVSPost2010PropOp45
 70
     1
102
RTVSPost2010Prop46
 90
       50
102
RTVSPost2010PropOp46
 70
     1
102
RTVSPost2010Prop47
 90
       50
102
RTVSPost2010PropOp47
 70
     1
102
RTVSPost2010Prop48
 90
       50
102
RTVSPost2010PropOp48
 70
     1
102
RTVSPost2010Prop49
280
     0
102
RTVSPost2010PropOp49
 70
     1
102
RTVSPost2010Prop50
 90
       50
102
RTVSPost2010PropOp50
 70
     1
102
RTVSPost2010Prop51ColorIndex
 90
      256
102
RTVSPost2010Prop51ColorRGB
 90
-16777216
102
RTVSPost2010PropOp51
 70
     0
102
RTVSPost2010Prop52
140
1.0
102
RTVSPost2010PropOp52
 70
     0
102
RTVSPost2010Prop53
 90
        2
102
RTVSPost2010PropOp53
 70
     1
102
RTVSPost2010Prop54
  1
strokes_ogs.tif
102
RTVSPost2010PropOp54
 70
     1
102
RTVSPost2010Prop55
280
     0
102
RTVSPost2010PropOp55
 70
     1
102
RTVSPost2010Prop56
140
1.0
102
RTVSPost2010PropOp56
 70
     1
102
RTVSPost2010Prop57
140
1.0
102
RTVSPost2010PropOp57
 70
     1
  0
XRECORD
  5
33D
102
{ACAD_REACTORS
330
33C
102
}
330
33C
100
AcDbXrecord
280
     1
102
RTVSPropertyOp0
 70
     1
102
RTVSPropertyOp1
 70
     1
102
RTVSPropertyOp2
 70
     1
102
RTVSPropertyOp3
 70
     1
102
RTVSPropertyOp4
 70
     1
102
RTVSPropertyOp5
 70
     1
102
RTVSPropertyOp6
 70
     1
102
RTVSPropertyOp7
 70
     1
102
RTVSPropertyOp8
 70
     1
102
RTVSPropertyOp9
 70
     1
102
RTVSPropertyOp10
 70
     1
102
RTVSPropertyOp11
 70
     1
102
RTVSPropertyOp12
 70
     1
102
RTVSPropertyOp13
 70
     1
102
RTVSPropertyOp14
 70
     1
102
RTVSPropertyOp15
 70
     1
102
RTVSPropertyOp16
 70
     1
102
RTVSPropertyOp17
 70
     1
102
RTVSPropertyOp18
 70
     1
102
RTVSPropertyOp19
 70
     1
102
RTVSPropertyOp20
 70
     1
102
RTVSPropertyOp21
 70
     1
102
RTVSPropertyOp22
 70
     1
102
RTVSPropertyOp23
 70
     1
102
RTVSPropertyOp24
 70
     1
102
RTVSPropertyOp25
 70
     1
102
RTVSPropertyOp26
 70
     1
102
RTVSPropertyOp27
 70
     1
102
RTVSPropertyOp28
 70
     1
102
RTVSPropertyOp29
 70
     1
102
RTVSPropertyOp30
 70
     1
102
RTVSPropertyOp31
 70
     1
102
RTVSPropertyOp32
 70
     1
102
RTVSPropertyOp33
 70
     1
102
RTVSPropertyOp34
 70
     1
102
RTVSPropertyOp35
 70
     1
102
RTVSPropertyOp36
 70
     1
102
RTVSPropertyOp37
 70
     1
102
RTVSPropertyOp38
 70
     1
102
RTVSPropertyOp39
 70
     1
102
RTVSPropertyOp40
 70
     1
102
RTVSPropertyOp41
 70
     1
102
RTVSPropertyOp42
 70
     1
102
RTVSPropertyOp43
 70
     1
102
RTVSPropertyOp44
 70
     1
102
RTVSPropertyOp45
 70
     1
102
RTVSPropertyOp46
 70
     1
102
RTVSPropertyOp47
 70
     1
102
RTVSPropertyOp48
 70
     1
102
RTVSPropertyOp49
 70
     1
102
RTVSPropertyOp50
 70
     1
102
RTVSPropertyOp51
 70
     0
102
RTVSPropertyOp52
 70
     0
102
RTVSPropertyOp53
 70
     1
102
RTVSPropertyOp54
 70
     1
102
RTVSPropertyOp55
 70
     1
102
RTVSPropertyOp56
 70
     1
102
RTVSPropertyOp57
 70
     1
102
RTVSPost2010Prop28
280
     0
102
RTVSPost2010PropOp28
 70
     1
102
RTVSPost2010Prop29
280
     1
102
RTVSPost2010PropOp29
 70
     1
102
RTVSPost2010Prop30
280
     1
102
RTVSPost2010PropOp30
 70
     1
102
RTVSPost2010Prop31
280
     0
102
RTVSPost2010PropOp31
 70
     1
102
RTVSPost2010Prop32
280
     0
102
RTVSPost2010PropOp32
 70
     1
102
RTVSPost2010Prop33
280
     0
102
RTVSPost2010PropOp33
 70
     1
102
RTVSPost2010Prop34
280
     0
102
RTVSPost2010PropOp34
 70
     1
102
RTVSPost2010Prop35
280
     0
102
RTVSPost2010PropOp35
 70
     1
102
RTVSPost2010Prop36
280
     0
102
RTVSPost2010PropOp36
 70
     1
102
RTVSPost2010Prop37
 90
       50
102
RTVSPost2010PropOp37
 70
     1
102
RTVSPost2010Prop38
140
0.0
102
RTVSPost2010PropOp38
 70
     1
102
RTVSPost2010Prop39
140
1.0
102
RTVSPost2010PropOp39
 70
     1
102
RTVSPost2010Prop40
 90
        0
102
RTVSPost2010PropOp40
 70
     1
102
RTVSPost2010Prop41ColorIndex
 90
       18
102
RTVSPost2010Prop41ColorRGB
 90
        0
102
RTVSPost2010PropOp41
 70
     1
102
RTVSPost2010Prop42
 90
       50
102
RTVSPost2010PropOp42
 70
     1
102
RTVSPost2010Prop43
 90
        3
102
RTVSPost2010PropOp43
 70
     1
102
RTVSPost2010Prop44ColorIndex
 90
        5
102
RTVSPost2010Prop44ColorRGB
 90
      255
102
RTVSPost2010PropOp44
 70
     1
102
RTVSPost2010Prop45
280
     0
102
RTVSPost2010PropOp45
 70
     1
102
RTVSPost2010Prop46
 90
       50
102
RTVSPost2010PropOp46
 70
     1
102
RTVSPost2010Prop47
 90
       50
102
RTVSPost2010PropOp47
 70
     1
102
RTVSPost2010Prop48
 90
       50
102
RTVSPost2010PropOp48
 70
     1
102
RTVSPost2010Prop49
280
     0
102
RTVSPost2010PropOp49
 70
     1
102
RTVSPost2010Prop50
 90
       50
102
RTVSPost2010PropOp50
 70
     1
102
RTVSPost2010Prop51ColorIndex
 90
      256
102
RTVSPost2010Prop51ColorRGB
 90
-16777216
102
RTVSPost2010PropOp51
 70
     0
102
RTVSPost2010Prop52
140
1.0
102
RTVSPost2010PropOp52
 70
     0
102
RTVSPost2010Prop53
 90
        2
102
RTVSPost2010PropOp53
 70
     1
102
RTVSPost2010Prop54
  1
strokes_ogs.tif
102
RTVSPost2010PropOp54
 70
     1
102
RTVSPost2010Prop55
280
     0
102
RTVSPost2010PropOp55
 70
     1
102
RTVSPost2010Prop56
140
1.0
102
RTVSPost2010PropOp56
 70
     1
102
RTVSPost2010Prop57
140
1.0
102
RTVSPost2010PropOp57
 70
     1
  0
XRECORD
  5
343
102
{ACAD_REACTORS
330
342
102
}
330
342
100
AcDbXrecord
280
     1
102
RTVSPropertyOp0
 70
     1
102
RTVSPropertyOp1
 70
     1
102
RTVSPropertyOp2
 70
     1
102
RTVSPropertyOp3
 70
     1
102
RTVSPropertyOp4
 70
     1
102
RTVSPropertyOp5
 70
     1
102
RTVSPropertyOp6
 70
     1
102
RTVSPropertyOp7
 70
     1
102
RTVSPropertyOp8
 70
     1
102
RTVSPropertyOp9
 70
     1
102
RTVSPropertyOp10
 70
     1
102
RTVSPropertyOp11
 70
     1
102
RTVSPropertyOp12
 70
     1
102
RTVSPropertyOp13
 70
     1
102
RTVSPropertyOp14
 70
     1
102
RTVSPropertyOp15
 70
     1
102
RTVSPropertyOp16
 70
     1
102
RTVSPropertyOp17
 70
     1
102
RTVSPropertyOp18
 70
     1
102
RTVSPropertyOp19
 70
     1
102
RTVSPropertyOp20
 70
     1
102
RTVSPropertyOp21
 70
     1
102
RTVSPropertyOp22
 70
     1
102
RTVSPropertyOp23
 70
     1
102
RTVSPropertyOp24
 70
     1
102
RTVSPropertyOp25
 70
     1
102
RTVSPropertyOp26
 70
     1
102
RTVSPropertyOp27
 70
     1
102
RTVSPropertyOp28
 70
     1
102
RTVSPropertyOp29
 70
     1
102
RTVSPropertyOp30
 70
     1
102
RTVSPropertyOp31
 70
     1
102
RTVSPropertyOp32
 70
     1
102
RTVSPropertyOp33
 70
     1
102
RTVSPropertyOp34
 70
     1
102
RTVSPropertyOp35
 70
     1
102
RTVSPropertyOp36
 70
     1
102
RTVSPropertyOp37
 70
     1
102
RTVSPropertyOp38
 70
     1
102
RTVSPropertyOp39
 70
     1
102
RTVSPropertyOp40
 70
     1
102
RTVSPropertyOp41
 70
     1
102
RTVSPropertyOp42
 70
     1
102
RTVSPropertyOp43
 70
     1
102
RTVSPropertyOp44
 70
     1
102
RTVSPropertyOp45
 70
     1
102
RTVSPropertyOp46
 70
     1
102
RTVSPropertyOp47
 70
     1
102
RTVSPropertyOp48
 70
     1
102
RTVSPropertyOp49
 70
     1
102
RTVSPropertyOp50
 70
     1
102
RTVSPropertyOp51
 70
     0
102
RTVSPropertyOp52
 70
     0
102
RTVSPropertyOp53
 70
     1
102
RTVSPropertyOp54
 70
     1
102
RTVSPropertyOp55
 70
     1
102
RTVSPropertyOp56
 70
     1
102
RTVSPropertyOp57
 70
     1
102
RTVSPost2010Prop28
280
     0
102
RTVSPost2010PropOp28
 70
     1
102
RTVSPost2010Prop29
280
     1
102
RTVSPost2010PropOp29
 70
     1
102
RTVSPost2010Prop30
280
     1
102
RTVSPost2010PropOp30
 70
     1
102
RTVSPost2010Prop31
280
     0
102
RTVSPost2010PropOp31
 70
     1
102
RTVSPost2010Prop32
280
     0
102
RTVSPost2010PropOp32
 70
     1
102
RTVSPost2010Prop33
280
     0
102
RTVSPost2010PropOp33
 70
     1
102
RTVSPost2010Prop34
280
     0
102
RTVSPost2010PropOp34
 70
     1
102
RTVSPost2010Prop35
280
     0
102
RTVSPost2010PropOp35
 70
     1
102
RTVSPost2010Prop36
280
     0
102
RTVSPost2010PropOp36
 70
     1
102
RTVSPost2010Prop37
 90
       50
102
RTVSPost2010PropOp37
 70
     1
102
RTVSPost2010Prop38
140
0.0
102
RTVSPost2010PropOp38
 70
     1
102
RTVSPost2010Prop39
140
1.0
102
RTVSPost2010PropOp39
 70
     1
102
RTVSPost2010Prop40
 90
        0
102
RTVSPost2010PropOp40
 70
     1
102
RTVSPost2010Prop41ColorIndex
 90
       18
102
RTVSPost2010Prop41ColorRGB
 90
        0
102
RTVSPost2010PropOp41
 70
     1
102
RTVSPost2010Prop42
 90
       50
102
RTVSPost2010PropOp42
 70
     1
102
RTVSPost2010Prop43
 90
        3
102
RTVSPost2010PropOp43
 70
     1
102
RTVSPost2010Prop44ColorIndex
 90
        5
102
RTVSPost2010Prop44ColorRGB
 90
      255
102
RTVSPost2010PropOp44
 70
     1
102
RTVSPost2010Prop45
280
     0
102
RTVSPost2010PropOp45
 70
     1
102
RTVSPost2010Prop46
 90
       50
102
RTVSPost2010PropOp46
 70
     1
102
RTVSPost2010Prop47
 90
       50
102
RTVSPost2010PropOp47
 70
     1
102
RTVSPost2010Prop48
 90
       50
102
RTVSPost2010PropOp48
 70
     1
102
RTVSPost2010Prop49
280
     0
102
RTVSPost2010PropOp49
 70
     1
102
RTVSPost2010Prop50
 90
       50
102
RTVSPost2010PropOp50
 70
     1
102
RTVSPost2010Prop51ColorIndex
 90
      256
102
RTVSPost2010Prop51ColorRGB
 90
-16777216
102
RTVSPost2010PropOp51
 70
     0
102
RTVSPost2010Prop52
140
1.0
102
RTVSPost2010PropOp52
 70
     0
102
RTVSPost2010Prop53
 90
        2
102
RTVSPost2010PropOp53
 70
     1
102
RTVSPost2010Prop54
  1
strokes_ogs.tif
102
RTVSPost2010PropOp54
 70
     1
102
RTVSPost2010Prop55
280
     0
102
RTVSPost2010PropOp55
 70
     1
102
RTVSPost2010Prop56
140
1.0
102
RTVSPost2010PropOp56
 70
     1
102
RTVSPost2010Prop57
140
1.0
102
RTVSPost2010PropOp57
 70
     1
  0
XRECORD
  5
357
102
{ACAD_REACTORS
330
356
102
}
330
356
100
AcDbXrecord
280
     1
102
RTVSPropertyOp0
 70
     0
102
RTVSPropertyOp1
 70
     0
102
RTVSPropertyOp2
 70
     0
102
RTVSPropertyOp3
 70
     0
102
RTVSPropertyOp4
 70
     0
102
RTVSPropertyOp5
 70
     0
102
RTVSPropertyOp6
 70
     0
102
RTVSPropertyOp7
 70
     0
102
RTVSPropertyOp8
 70
     0
102
RTVSPropertyOp9
 70
     0
102
RTVSPropertyOp10
 70
     0
102
RTVSPropertyOp11
 70
     0
102
RTVSPropertyOp12
 70
     0
102
RTVSPropertyOp13
 70
     0
102
RTVSPropertyOp14
 70
     2
102
RTVSPropertyOp15
 70
     0
102
RTVSPropertyOp16
 70
     0
102
RTVSPropertyOp17
 70
     0
102
RTVSPropertyOp18
 70
     0
102
RTVSPropertyOp19
 70
     0
102
RTVSPropertyOp20
 70
     0
102
RTVSPropertyOp21
 70
     0
102
RTVSPropertyOp22
 70
     0
102
RTVSPropertyOp23
 70
     0
102
RTVSPropertyOp24
 70
     0
102
RTVSPropertyOp25
 70
     0
102
RTVSPropertyOp26
 70
     0
102
RTVSPropertyOp27
 70
     0
102
RTVSPropertyOp28
 70
     0
102
RTVSPropertyOp29
 70
     0
102
RTVSPropertyOp30
 70
     0
102
RTVSPropertyOp31
 70
     0
102
RTVSPropertyOp32
 70
     0
102
RTVSPropertyOp33
 70
     0
102
RTVSPropertyOp34
 70
     0
102
RTVSPropertyOp35
 70
     0
102
RTVSPropertyOp36
 70
     0
102
RTVSPropertyOp37
 70
     0
102
RTVSPropertyOp38
 70
     0
102
RTVSPropertyOp39
 70
     0
102
RTVSPropertyOp40
 70
     0
102
RTVSPropertyOp41
 70
     0
102
RTVSPropertyOp42
 70
     0
102
RTVSPropertyOp43
 70
     0
102
RTVSPropertyOp44
 70
     0
102
RTVSPropertyOp45
 70
     0
102
RTVSPropertyOp46
 70
     0
102
RTVSPropertyOp47
 70
     0
102
RTVSPropertyOp48
 70
     0
102
RTVSPropertyOp49
 70
     0
102
RTVSPropertyOp50
 70
     0
102
RTVSPropertyOp51
 70
     0
102
RTVSPropertyOp52
 70
     0
102
RTVSPropertyOp53
 70
     0
102
RTVSPropertyOp54
 70
     0
102
RTVSPropertyOp55
 70
     0
102
RTVSPropertyOp56
 70
     0
102
RTVSPropertyOp57
 70
     0
102
RTVSPost2010Prop28
280
     0
102
RTVSPost2010PropOp28
 70
     0
102
RTVSPost2010Prop29
280
     1
102
RTVSPost2010PropOp29
 70
     0
102
RTVSPost2010Prop30
280
     1
102
RTVSPost2010PropOp30
 70
     0
102
RTVSPost2010Prop31
280
     0
102
RTVSPost2010PropOp31
 70
     0
102
RTVSPost2010Prop32
280
     0
102
RTVSPost2010PropOp32
 70
     0
102
RTVSPost2010Prop33
280
     0
102
RTVSPost2010PropOp33
 70
     0
102
RTVSPost2010Prop34
280
     0
102
RTVSPost2010PropOp34
 70
     0
102
RTVSPost2010Prop35
280
     0
102
RTVSPost2010PropOp35
 70
     0
102
RTVSPost2010Prop36
280
     0
102
RTVSPost2010PropOp36
 70
     0
102
RTVSPost2010Prop37
 90
       50
102
RTVSPost2010PropOp37
 70
     0
102
RTVSPost2010Prop38
140
0.0
102
RTVSPost2010PropOp38
 70
     0
102
RTVSPost2010Prop39
140
1.0
102
RTVSPost2010PropOp39
 70
     0
102
RTVSPost2010Prop40
 90
        0
102
RTVSPost2010PropOp40
 70
     0
102
RTVSPost2010Prop41ColorIndex
 90
       18
102
RTVSPost2010Prop41ColorRGB
 90
        0
102
RTVSPost2010PropOp41
 70
     0
102
RTVSPost2010Prop42
 90
       50
102
RTVSPost2010PropOp42
 70
     0
102
RTVSPost2010Prop43
 90
        3
102
RTVSPost2010PropOp43
 70
     0
102
RTVSPost2010Prop44ColorIndex
 90
        5
102
RTVSPost2010Prop44ColorRGB
 90
      255
102
RTVSPost2010PropOp44
 70
     0
102
RTVSPost2010Prop45
280
     0
102
RTVSPost2010PropOp45
 70
     0
102
RTVSPost2010Prop46
 90
       50
102
RTVSPost2010PropOp46
 70
     0
102
RTVSPost2010Prop47
 90
       50
102
RTVSPost2010PropOp47
 70
     0
102
RTVSPost2010Prop48
 90
       50
102
RTVSPost2010PropOp48
 70
     0
102
RTVSPost2010Prop49
280
     0
102
RTVSPost2010PropOp49
 70
     0
102
RTVSPost2010Prop50
 90
       50
102
RTVSPost2010PropOp50
 70
     0
102
RTVSPost2010Prop51ColorIndex
 90
      256
102
RTVSPost2010Prop51ColorRGB
 90
-16777216
102
RTVSPost2010PropOp51
 70
     0
102
RTVSPost2010Prop52
140
1.0
102
RTVSPost2010PropOp52
 70
     0
102
RTVSPost2010Prop53
 90
        2
102
RTVSPost2010PropOp53
 70
     0
102
RTVSPost2010Prop54
  1
strokes_ogs.tif
102
RTVSPost2010PropOp54
 70
     0
102
RTVSPost2010Prop55
280
     0
102
RTVSPost2010PropOp55
 70
     0
102
RTVSPost2010Prop56
140
1.0
102
RTVSPost2010PropOp56
 70
     0
102
RTVSPost2010Prop57
140
1.0
102
RTVSPost2010PropOp57
 70
     0
  0
XRECORD
  5
351
102
{ACAD_REACTORS
330
350
102
}
330
350
100
AcDbXrecord
280
     1
102
RTVSPropertyOp0
 70
     1
102
RTVSPropertyOp1
 70
     1
102
RTVSPropertyOp2
 70
     1
102
RTVSPropertyOp3
 70
     1
102
RTVSPropertyOp4
 70
     1
102
RTVSPropertyOp5
 70
     1
102
RTVSPropertyOp6
 70
     1
102
RTVSPropertyOp7
 70
     1
102
RTVSPropertyOp8
 70
     1
102
RTVSPropertyOp9
 70
     1
102
RTVSPropertyOp10
 70
     1
102
RTVSPropertyOp11
 70
     1
102
RTVSPropertyOp12
 70
     1
102
RTVSPropertyOp13
 70
     1
102
RTVSPropertyOp14
 70
     1
102
RTVSPropertyOp15
 70
     1
102
RTVSPropertyOp16
 70
     1
102
RTVSPropertyOp17
 70
     1
102
RTVSPropertyOp18
 70
     1
102
RTVSPropertyOp19
 70
     1
102
RTVSPropertyOp20
 70
     1
102
RTVSPropertyOp21
 70
     1
102
RTVSPropertyOp22
 70
     1
102
RTVSPropertyOp23
 70
     1
102
RTVSPropertyOp24
 70
     1
102
RTVSPropertyOp25
 70
     1
102
RTVSPropertyOp26
 70
     1
102
RTVSPropertyOp27
 70
     1
102
RTVSPropertyOp28
 70
     1
102
RTVSPropertyOp29
 70
     1
102
RTVSPropertyOp30
 70
     1
102
RTVSPropertyOp31
 70
     1
102
RTVSPropertyOp32
 70
     1
102
RTVSPropertyOp33
 70
     1
102
RTVSPropertyOp34
 70
     1
102
RTVSPropertyOp35
 70
     1
102
RTVSPropertyOp36
 70
     1
102
RTVSPropertyOp37
 70
     1
102
RTVSPropertyOp38
 70
     1
102
RTVSPropertyOp39
 70
     1
102
RTVSPropertyOp40
 70
     1
102
RTVSPropertyOp41
 70
     1
102
RTVSPropertyOp42
 70
     1
102
RTVSPropertyOp43
 70
     1
102
RTVSPropertyOp44
 70
     1
102
RTVSPropertyOp45
 70
     1
102
RTVSPropertyOp46
 70
     1
102
RTVSPropertyOp47
 70
     1
102
RTVSPropertyOp48
 70
     1
102
RTVSPropertyOp49
 70
     1
102
RTVSPropertyOp50
 70
     1
102
RTVSPropertyOp51
 70
     0
102
RTVSPropertyOp52
 70
     0
102
RTVSPropertyOp53
 70
     1
102
RTVSPropertyOp54
 70
     1
102
RTVSPropertyOp55
 70
     1
102
RTVSPropertyOp56
 70
     1
102
RTVSPropertyOp57
 70
     1
102
RTVSPost2010Prop28
280
     0
102
RTVSPost2010PropOp28
 70
     1
102
RTVSPost2010Prop29
280
     1
102
RTVSPost2010PropOp29
 70
     1
102
RTVSPost2010Prop30
280
     1
102
RTVSPost2010PropOp30
 70
     1
102
RTVSPost2010Prop31
280
     0
102
RTVSPost2010PropOp31
 70
     1
102
RTVSPost2010Prop32
280
     0
102
RTVSPost2010PropOp32
 70
     1
102
RTVSPost2010Prop33
280
     0
102
RTVSPost2010PropOp33
 70
     1
102
RTVSPost2010Prop34
280
     0
102
RTVSPost2010PropOp34
 70
     1
102
RTVSPost2010Prop35
280
     0
102
RTVSPost2010PropOp35
 70
     1
102
RTVSPost2010Prop36
280
     0
102
RTVSPost2010PropOp36
 70
     1
102
RTVSPost2010Prop37
 90
       50
102
RTVSPost2010PropOp37
 70
     1
102
RTVSPost2010Prop38
140
0.0
102
RTVSPost2010PropOp38
 70
     1
102
RTVSPost2010Prop39
140
1.0
102
RTVSPost2010PropOp39
 70
     1
102
RTVSPost2010Prop40
 90
        0
102
RTVSPost2010PropOp40
 70
     1
102
RTVSPost2010Prop41ColorIndex
 90
       18
102
RTVSPost2010Prop41ColorRGB
 90
        0
102
RTVSPost2010PropOp41
 70
     1
102
RTVSPost2010Prop42
 90
       50
102
RTVSPost2010PropOp42
 70
     1
102
RTVSPost2010Prop43
 90
        3
102
RTVSPost2010PropOp43
 70
     1
102
RTVSPost2010Prop44ColorIndex
 90
        5
102
RTVSPost2010Prop44ColorRGB
 90
      255
102
RTVSPost2010PropOp44
 70
     1
102
RTVSPost2010Prop45
280
     0
102
RTVSPost2010PropOp45
 70
     1
102
RTVSPost2010Prop46
 90
       50
102
RTVSPost2010PropOp46
 70
     1
102
RTVSPost2010Prop47
 90
       50
102
RTVSPost2010PropOp47
 70
     1
102
RTVSPost2010Prop48
 90
       50
102
RTVSPost2010PropOp48
 70
     1
102
RTVSPost2010Prop49
280
     0
102
RTVSPost2010PropOp49
 70
     1
102
RTVSPost2010Prop50
 90
       50
102
RTVSPost2010PropOp50
 70
     1
102
RTVSPost2010Prop51ColorIndex
 90
      256
102
RTVSPost2010Prop51ColorRGB
 90
-16777216
102
RTVSPost2010PropOp51
 70
     0
102
RTVSPost2010Prop52
140
1.0
102
RTVSPost2010PropOp52
 70
     0
102
RTVSPost2010Prop53
 90
        2
102
RTVSPost2010PropOp53
 70
     1
102
RTVSPost2010Prop54
  1
strokes_ogs.tif
102
RTVSPost2010PropOp54
 70
     1
102
RTVSPost2010Prop55
280
     0
102
RTVSPost2010PropOp55
 70
     1
102
RTVSPost2010Prop56
140
1.0
102
RTVSPost2010PropOp56
 70
     1
102
RTVSPost2010Prop57
140
1.0
102
RTVSPost2010PropOp57
 70
     1
  0
XRECORD
  5
359
102
{ACAD_REACTORS
330
358
102
}
330
358
100
AcDbXrecord
280
     1
102
RTVSPropertyOp0
 70
     0
102
RTVSPropertyOp1
 70
     0
102
RTVSPropertyOp2
 70
     0
102
RTVSPropertyOp3
 70
     0
102
RTVSPropertyOp4
 70
     0
102
RTVSPropertyOp5
 70
     0
102
RTVSPropertyOp6
 70
     0
102
RTVSPropertyOp7
 70
     0
102
RTVSPropertyOp8
 70
     0
102
RTVSPropertyOp9
 70
     0
102
RTVSPropertyOp10
 70
     0
102
RTVSPropertyOp11
 70
     0
102
RTVSPropertyOp12
 70
     0
102
RTVSPropertyOp13
 70
     0
102
RTVSPropertyOp14
 70
     2
102
RTVSPropertyOp15
 70
     0
102
RTVSPropertyOp16
 70
     0
102
RTVSPropertyOp17
 70
     0
102
RTVSPropertyOp18
 70
     0
102
RTVSPropertyOp19
 70
     0
102
RTVSPropertyOp20
 70
     0
102
RTVSPropertyOp21
 70
     0
102
RTVSPropertyOp22
 70
     0
102
RTVSPropertyOp23
 70
     0
102
RTVSPropertyOp24
 70
     0
102
RTVSPropertyOp25
 70
     0
102
RTVSPropertyOp26
 70
     0
102
RTVSPropertyOp27
 70
     0
102
RTVSPropertyOp28
 70
     0
102
RTVSPropertyOp29
 70
     0
102
RTVSPropertyOp30
 70
     0
102
RTVSPropertyOp31
 70
     0
102
RTVSPropertyOp32
 70
     0
102
RTVSPropertyOp33
 70
     0
102
RTVSPropertyOp34
 70
     0
102
RTVSPropertyOp35
 70
     0
102
RTVSPropertyOp36
 70
     0
102
RTVSPropertyOp37
 70
     0
102
RTVSPropertyOp38
 70
     0
102
RTVSPropertyOp39
 70
     0
102
RTVSPropertyOp40
 70
     0
102
RTVSPropertyOp41
 70
     0
102
RTVSPropertyOp42
 70
     0
102
RTVSPropertyOp43
 70
     0
102
RTVSPropertyOp44
 70
     0
102
RTVSPropertyOp45
 70
     0
102
RTVSPropertyOp46
 70
     0
102
RTVSPropertyOp47
 70
     0
102
RTVSPropertyOp48
 70
     0
102
RTVSPropertyOp49
 70
     0
102
RTVSPropertyOp50
 70
     0
102
RTVSPropertyOp51
 70
     0
102
RTVSPropertyOp52
 70
     0
102
RTVSPropertyOp53
 70
     0
102
RTVSPropertyOp54
 70
     0
102
RTVSPropertyOp55
 70
     0
102
RTVSPropertyOp56
 70
     0
102
RTVSPropertyOp57
 70
     0
102
RTVSPost2010Prop28
280
     0
102
RTVSPost2010PropOp28
 70
     0
102
RTVSPost2010Prop29
280
     1
102
RTVSPost2010PropOp29
 70
     0
102
RTVSPost2010Prop30
280
     1
102
RTVSPost2010PropOp30
 70
     0
102
RTVSPost2010Prop31
280
     0
102
RTVSPost2010PropOp31
 70
     0
102
RTVSPost2010Prop32
280
     0
102
RTVSPost2010PropOp32
 70
     0
102
RTVSPost2010Prop33
280
     0
102
RTVSPost2010PropOp33
 70
     0
102
RTVSPost2010Prop34
280
     0
102
RTVSPost2010PropOp34
 70
     0
102
RTVSPost2010Prop35
280
     0
102
RTVSPost2010PropOp35
 70
     0
102
RTVSPost2010Prop36
280
     0
102
RTVSPost2010PropOp36
 70
     0
102
RTVSPost2010Prop37
 90
       50
102
RTVSPost2010PropOp37
 70
     0
102
RTVSPost2010Prop38
140
0.0
102
RTVSPost2010PropOp38
 70
     0
102
RTVSPost2010Prop39
140
1.0
102
RTVSPost2010PropOp39
 70
     0
102
RTVSPost2010Prop40
 90
        0
102
RTVSPost2010PropOp40
 70
     0
102
RTVSPost2010Prop41ColorIndex
 90
       18
102
RTVSPost2010Prop41ColorRGB
 90
        0
102
RTVSPost2010PropOp41
 70
     0
102
RTVSPost2010Prop42
 90
       50
102
RTVSPost2010PropOp42
 70
     0
102
RTVSPost2010Prop43
 90
        3
102
RTVSPost2010PropOp43
 70
     0
102
RTVSPost2010Prop44ColorIndex
 90
        5
102
RTVSPost2010Prop44ColorRGB
 90
      255
102
RTVSPost2010PropOp44
 70
     0
102
RTVSPost2010Prop45
280
     0
102
RTVSPost2010PropOp45
 70
     0
102
RTVSPost2010Prop46
 90
       50
102
RTVSPost2010PropOp46
 70
     0
102
RTVSPost2010Prop47
 90
       50
102
RTVSPost2010PropOp47
 70
     0
102
RTVSPost2010Prop48
 90
       50
102
RTVSPost2010PropOp48
 70
     0
102
RTVSPost2010Prop49
280
     0
102
RTVSPost2010PropOp49
 70
     0
102
RTVSPost2010Prop50
 90
       50
102
RTVSPost2010PropOp50
 70
     0
102
RTVSPost2010Prop51ColorIndex
 90
      256
102
RTVSPost2010Prop51ColorRGB
 90
-16777216
102
RTVSPost2010PropOp51
 70
     0
102
RTVSPost2010Prop52
140
1.0
102
RTVSPost2010PropOp52
 70
     0
102
RTVSPost2010Prop53
 90
        2
102
RTVSPost2010PropOp53
 70
     0
102
RTVSPost2010Prop54
  1
strokes_ogs.tif
102
RTVSPost2010PropOp54
 70
     0
102
RTVSPost2010Prop55
280
     0
102
RTVSPost2010PropOp55
 70
     0
102
RTVSPost2010Prop56
140
1.0
102
RTVSPost2010PropOp56
 70
     0
102
RTVSPost2010Prop57
140
1.0
102
RTVSPost2010PropOp57
 70
     0
  0
XRECORD
  5
347
102
{ACAD_REACTORS
330
346
102
}
330
346
100
AcDbXrecord
280
     1
102
RTVSPropertyOp0
 70
     1
102
RTVSPropertyOp1
 70
     1
102
RTVSPropertyOp2
 70
     1
102
RTVSPropertyOp3
 70
     1
102
RTVSPropertyOp4
 70
     1
102
RTVSPropertyOp5
 70
     1
102
RTVSPropertyOp6
 70
     1
102
RTVSPropertyOp7
 70
     1
102
RTVSPropertyOp8
 70
     1
102
RTVSPropertyOp9
 70
     1
102
RTVSPropertyOp10
 70
     1
102
RTVSPropertyOp11
 70
     1
102
RTVSPropertyOp12
 70
     1
102
RTVSPropertyOp13
 70
     1
102
RTVSPropertyOp14
 70
     1
102
RTVSPropertyOp15
 70
     1
102
RTVSPropertyOp16
 70
     1
102
RTVSPropertyOp17
 70
     1
102
RTVSPropertyOp18
 70
     1
102
RTVSPropertyOp19
 70
     1
102
RTVSPropertyOp20
 70
     1
102
RTVSPropertyOp21
 70
     1
102
RTVSPropertyOp22
 70
     1
102
RTVSPropertyOp23
 70
     1
102
RTVSPropertyOp24
 70
     1
102
RTVSPropertyOp25
 70
     1
102
RTVSPropertyOp26
 70
     1
102
RTVSPropertyOp27
 70
     1
102
RTVSPropertyOp28
 70
     1
102
RTVSPropertyOp29
 70
     1
102
RTVSPropertyOp30
 70
     1
102
RTVSPropertyOp31
 70
     1
102
RTVSPropertyOp32
 70
     1
102
RTVSPropertyOp33
 70
     1
102
RTVSPropertyOp34
 70
     1
102
RTVSPropertyOp35
 70
     1
102
RTVSPropertyOp36
 70
     1
102
RTVSPropertyOp37
 70
     1
102
RTVSPropertyOp38
 70
     1
102
RTVSPropertyOp39
 70
     1
102
RTVSPropertyOp40
 70
     1
102
RTVSPropertyOp41
 70
     1
102
RTVSPropertyOp42
 70
     1
102
RTVSPropertyOp43
 70
     1
102
RTVSPropertyOp44
 70
     1
102
RTVSPropertyOp45
 70
     1
102
RTVSPropertyOp46
 70
     1
102
RTVSPropertyOp47
 70
     1
102
RTVSPropertyOp48
 70
     1
102
RTVSPropertyOp49
 70
     1
102
RTVSPropertyOp50
 70
     1
102
RTVSPropertyOp51
 70
     0
102
RTVSPropertyOp52
 70
     0
102
RTVSPropertyOp53
 70
     1
102
RTVSPropertyOp54
 70
     1
102
RTVSPropertyOp55
 70
     1
102
RTVSPropertyOp56
 70
     1
102
RTVSPropertyOp57
 70
     1
102
RTVSPost2010Prop28
280
     0
102
RTVSPost2010PropOp28
 70
     1
102
RTVSPost2010Prop29
280
     1
102
RTVSPost2010PropOp29
 70
     1
102
RTVSPost2010Prop30
280
     1
102
RTVSPost2010PropOp30
 70
     1
102
RTVSPost2010Prop31
280
     0
102
RTVSPost2010PropOp31
 70
     1
102
RTVSPost2010Prop32
280
     0
102
RTVSPost2010PropOp32
 70
     1
102
RTVSPost2010Prop33
280
     0
102
RTVSPost2010PropOp33
 70
     1
102
RTVSPost2010Prop34
280
     0
102
RTVSPost2010PropOp34
 70
     1
102
RTVSPost2010Prop35
280
     0
102
RTVSPost2010PropOp35
 70
     1
102
RTVSPost2010Prop36
280
     0
102
RTVSPost2010PropOp36
 70
     1
102
RTVSPost2010Prop37
 90
       50
102
RTVSPost2010PropOp37
 70
     1
102
RTVSPost2010Prop38
140
0.0
102
RTVSPost2010PropOp38
 70
     1
102
RTVSPost2010Prop39
140
1.0
102
RTVSPost2010PropOp39
 70
     1
102
RTVSPost2010Prop40
 90
        0
102
RTVSPost2010PropOp40
 70
     1
102
RTVSPost2010Prop41ColorIndex
 90
       18
102
RTVSPost2010Prop41ColorRGB
 90
        0
102
RTVSPost2010PropOp41
 70
     1
102
RTVSPost2010Prop42
 90
       50
102
RTVSPost2010PropOp42
 70
     1
102
RTVSPost2010Prop43
 90
        3
102
RTVSPost2010PropOp43
 70
     1
102
RTVSPost2010Prop44ColorIndex
 90
        5
102
RTVSPost2010Prop44ColorRGB
 90
      255
102
RTVSPost2010PropOp44
 70
     1
102
RTVSPost2010Prop45
280
     0
102
RTVSPost2010PropOp45
 70
     1
102
RTVSPost2010Prop46
 90
       50
102
RTVSPost2010PropOp46
 70
     1
102
RTVSPost2010Prop47
 90
       50
102
RTVSPost2010PropOp47
 70
     1
102
RTVSPost2010Prop48
 90
       50
102
RTVSPost2010PropOp48
 70
     1
102
RTVSPost2010Prop49
280
     0
102
RTVSPost2010PropOp49
 70
     1
102
RTVSPost2010Prop50
 90
       50
102
RTVSPost2010PropOp50
 70
     1
102
RTVSPost2010Prop51ColorIndex
 90
      256
102
RTVSPost2010Prop51ColorRGB
 90
-16777216
102
RTVSPost2010PropOp51
 70
     0
102
RTVSPost2010Prop52
140
1.0
102
RTVSPost2010PropOp52
 70
     0
102
RTVSPost2010Prop53
 90
        2
102
RTVSPost2010PropOp53
 70
     1
102
RTVSPost2010Prop54
  1
strokes_ogs.tif
102
RTVSPost2010PropOp54
 70
     1
102
RTVSPost2010Prop55
280
     0
102
RTVSPost2010PropOp55
 70
     1
102
RTVSPost2010Prop56
140
1.0
102
RTVSPost2010PropOp56
 70
     1
102
RTVSPost2010Prop57
140
1.0
102
RTVSPost2010PropOp57
 70
     1
  0
XRECORD
  5
365
102
{ACAD_REACTORS
330
364
102
}
330
364
100
AcDbXrecord
280
     1
102
RTVSPropertyOp0
 70
     1
102
RTVSPropertyOp1
 70
     1
102
RTVSPropertyOp2
 70
     1
102
RTVSPropertyOp3
 70
     1
102
RTVSPropertyOp4
 70
     1
102
RTVSPropertyOp5
 70
     1
102
RTVSPropertyOp6
 70
     1
102
RTVSPropertyOp7
 70
     1
102
RTVSPropertyOp8
 70
     1
102
RTVSPropertyOp9
 70
     1
102
RTVSPropertyOp10
 70
     1
102
RTVSPropertyOp11
 70
     1
102
RTVSPropertyOp12
 70
     1
102
RTVSPropertyOp13
 70
     1
102
RTVSPropertyOp14
 70
     1
102
RTVSPropertyOp15
 70
     1
102
RTVSPropertyOp16
 70
     1
102
RTVSPropertyOp17
 70
     1
102
RTVSPropertyOp18
 70
     1
102
RTVSPropertyOp19
 70
     1
102
RTVSPropertyOp20
 70
     1
102
RTVSPropertyOp21
 70
     1
102
RTVSPropertyOp22
 70
     1
102
RTVSPropertyOp23
 70
     1
102
RTVSPropertyOp24
 70
     1
102
RTVSPropertyOp25
 70
     1
102
RTVSPropertyOp26
 70
     1
102
RTVSPropertyOp27
 70
     1
102
RTVSPropertyOp28
 70
     1
102
RTVSPropertyOp29
 70
     1
102
RTVSPropertyOp30
 70
     1
102
RTVSPropertyOp31
 70
     1
102
RTVSPropertyOp32
 70
     1
102
RTVSPropertyOp33
 70
     1
102
RTVSPropertyOp34
 70
     1
102
RTVSPropertyOp35
 70
     1
102
RTVSPropertyOp36
 70
     1
102
RTVSPropertyOp37
 70
     1
102
RTVSPropertyOp38
 70
     1
102
RTVSPropertyOp39
 70
     1
102
RTVSPropertyOp40
 70
     1
102
RTVSPropertyOp41
 70
     1
102
RTVSPropertyOp42
 70
     1
102
RTVSPropertyOp43
 70
     1
102
RTVSPropertyOp44
 70
     1
102
RTVSPropertyOp45
 70
     1
102
RTVSPropertyOp46
 70
     1
102
RTVSPropertyOp47
 70
     1
102
RTVSPropertyOp48
 70
     1
102
RTVSPropertyOp49
 70
     1
102
RTVSPropertyOp50
 70
     1
102
RTVSPropertyOp51
 70
     0
102
RTVSPropertyOp52
 70
     0
102
RTVSPropertyOp53
 70
     1
102
RTVSPropertyOp54
 70
     1
102
RTVSPropertyOp55
 70
     1
102
RTVSPropertyOp56
 70
     1
102
RTVSPropertyOp57
 70
     1
102
RTVSPost2010Prop28
280
     0
102
RTVSPost2010PropOp28
 70
     1
102
RTVSPost2010Prop29
280
     1
102
RTVSPost2010PropOp29
 70
     1
102
RTVSPost2010Prop30
280
     1
102
RTVSPost2010PropOp30
 70
     1
102
RTVSPost2010Prop31
280
     0
102
RTVSPost2010PropOp31
 70
     1
102
RTVSPost2010Prop32
280
     0
102
RTVSPost2010PropOp32
 70
     1
102
RTVSPost2010Prop33
280
     0
102
RTVSPost2010PropOp33
 70
     1
102
RTVSPost2010Prop34
280
     0
102
RTVSPost2010PropOp34
 70
     1
102
RTVSPost2010Prop35
280
     0
102
RTVSPost2010PropOp35
 70
     1
102
RTVSPost2010Prop36
280
     0
102
RTVSPost2010PropOp36
 70
     1
102
RTVSPost2010Prop37
 90
       50
102
RTVSPost2010PropOp37
 70
     1
102
RTVSPost2010Prop38
140
0.0
102
RTVSPost2010PropOp38
 70
     1
102
RTVSPost2010Prop39
140
1.0
102
RTVSPost2010PropOp39
 70
     1
102
RTVSPost2010Prop40
 90
        0
102
RTVSPost2010PropOp40
 70
     1
102
RTVSPost2010Prop41ColorIndex
 90
       18
102
RTVSPost2010Prop41ColorRGB
 90
        0
102
RTVSPost2010PropOp41
 70
     1
102
RTVSPost2010Prop42
 90
       50
102
RTVSPost2010PropOp42
 70
     1
102
RTVSPost2010Prop43
 90
        3
102
RTVSPost2010PropOp43
 70
     1
102
RTVSPost2010Prop44ColorIndex
 90
        5
102
RTVSPost2010Prop44ColorRGB
 90
      255
102
RTVSPost2010PropOp44
 70
     1
102
RTVSPost2010Prop45
280
     0
102
RTVSPost2010PropOp45
 70
     1
102
RTVSPost2010Prop46
 90
       50
102
RTVSPost2010PropOp46
 70
     1
102
RTVSPost2010Prop47
 90
       50
102
RTVSPost2010PropOp47
 70
     1
102
RTVSPost2010Prop48
 90
       50
102
RTVSPost2010PropOp48
 70
     1
102
RTVSPost2010Prop49
280
     0
102
RTVSPost2010PropOp49
 70
     1
102
RTVSPost2010Prop50
 90
       50
102
RTVSPost2010PropOp50
 70
     1
102
RTVSPost2010Prop51ColorIndex
 90
      256
102
RTVSPost2010Prop51ColorRGB
 90
-16777216
102
RTVSPost2010PropOp51
 70
     0
102
RTVSPost2010Prop52
140
1.0
102
RTVSPost2010PropOp52
 70
     0
102
RTVSPost2010Prop53
 90
        2
102
RTVSPost2010PropOp53
 70
     1
102
RTVSPost2010Prop54
  1
strokes_ogs.tif
102
RTVSPost2010PropOp54
 70
     1
102
RTVSPost2010Prop55
280
     0
102
RTVSPost2010PropOp55
 70
     1
102
RTVSPost2010Prop56
140
1.0
102
RTVSPost2010PropOp56
 70
     1
102
RTVSPost2010Prop57
140
1.0
102
RTVSPost2010PropOp57
 70
     1
  0
XRECORD
  5
363
102
{ACAD_REACTORS
330
362
102
}
330
362
100
AcDbXrecord
280
     1
102
RTVSPropertyOp0
 70
     1
102
RTVSPropertyOp1
 70
     1
102
RTVSPropertyOp2
 70
     1
102
RTVSPropertyOp3
 70
     1
102
RTVSPropertyOp4
 70
     1
102
RTVSPropertyOp5
 70
     1
102
RTVSPropertyOp6
 70
     1
102
RTVSPropertyOp7
 70
     1
102
RTVSPropertyOp8
 70
     1
102
RTVSPropertyOp9
 70
     1
102
RTVSPropertyOp10
 70
     1
102
RTVSPropertyOp11
 70
     1
102
RTVSPropertyOp12
 70
     1
102
RTVSPropertyOp13
 70
     1
102
RTVSPropertyOp14
 70
     1
102
RTVSPropertyOp15
 70
     1
102
RTVSPropertyOp16
 70
     1
102
RTVSPropertyOp17
 70
     1
102
RTVSPropertyOp18
 70
     1
102
RTVSPropertyOp19
 70
     1
102
RTVSPropertyOp20
 70
     1
102
RTVSPropertyOp21
 70
     1
102
RTVSPropertyOp22
 70
     1
102
RTVSPropertyOp23
 70
     1
102
RTVSPropertyOp24
 70
     1
102
RTVSPropertyOp25
 70
     1
102
RTVSPropertyOp26
 70
     1
102
RTVSPropertyOp27
 70
     1
102
RTVSPropertyOp28
 70
     1
102
RTVSPropertyOp29
 70
     1
102
RTVSPropertyOp30
 70
     1
102
RTVSPropertyOp31
 70
     1
102
RTVSPropertyOp32
 70
     1
102
RTVSPropertyOp33
 70
     1
102
RTVSPropertyOp34
 70
     1
102
RTVSPropertyOp35
 70
     1
102
RTVSPropertyOp36
 70
     1
102
RTVSPropertyOp37
 70
     1
102
RTVSPropertyOp38
 70
     1
102
RTVSPropertyOp39
 70
     1
102
RTVSPropertyOp40
 70
     1
102
RTVSPropertyOp41
 70
     1
102
RTVSPropertyOp42
 70
     1
102
RTVSPropertyOp43
 70
     1
102
RTVSPropertyOp44
 70
     1
102
RTVSPropertyOp45
 70
     1
102
RTVSPropertyOp46
 70
     1
102
RTVSPropertyOp47
 70
     1
102
RTVSPropertyOp48
 70
     1
102
RTVSPropertyOp49
 70
     1
102
RTVSPropertyOp50
 70
     1
102
RTVSPropertyOp51
 70
     0
102
RTVSPropertyOp52
 70
     0
102
RTVSPropertyOp53
 70
     1
102
RTVSPropertyOp54
 70
     1
102
RTVSPropertyOp55
 70
     1
102
RTVSPropertyOp56
 70
     1
102
RTVSPropertyOp57
 70
     1
102
RTVSPost2010Prop28
280
     0
102
RTVSPost2010PropOp28
 70
     1
102
RTVSPost2010Prop29
280
     1
102
RTVSPost2010PropOp29
 70
     1
102
RTVSPost2010Prop30
280
     1
102
RTVSPost2010PropOp30
 70
     1
102
RTVSPost2010Prop31
280
     0
102
RTVSPost2010PropOp31
 70
     1
102
RTVSPost2010Prop32
280
     0
102
RTVSPost2010PropOp32
 70
     1
102
RTVSPost2010Prop33
280
     0
102
RTVSPost2010PropOp33
 70
     1
102
RTVSPost2010Prop34
280
     0
102
RTVSPost2010PropOp34
 70
     1
102
RTVSPost2010Prop35
280
     0
102
RTVSPost2010PropOp35
 70
     1
102
RTVSPost2010Prop36
280
     0
102
RTVSPost2010PropOp36
 70
     1
102
RTVSPost2010Prop37
 90
       50
102
RTVSPost2010PropOp37
 70
     1
102
RTVSPost2010Prop38
140
0.0
102
RTVSPost2010PropOp38
 70
     1
102
RTVSPost2010Prop39
140
1.0
102
RTVSPost2010PropOp39
 70
     1
102
RTVSPost2010Prop40
 90
        0
102
RTVSPost2010PropOp40
 70
     1
102
RTVSPost2010Prop41ColorIndex
 90
       18
102
RTVSPost2010Prop41ColorRGB
 90
        0
102
RTVSPost2010PropOp41
 70
     1
102
RTVSPost2010Prop42
 90
       50
102
RTVSPost2010PropOp42
 70
     1
102
RTVSPost2010Prop43
 90
        3
102
RTVSPost2010PropOp43
 70
     1
102
RTVSPost2010Prop44ColorIndex
 90
        5
102
RTVSPost2010Prop44ColorRGB
 90
      255
102
RTVSPost2010PropOp44
 70
     1
102
RTVSPost2010Prop45
280
     0
102
RTVSPost2010PropOp45
 70
     1
102
RTVSPost2010Prop46
 90
       50
102
RTVSPost2010PropOp46
 70
     1
102
RTVSPost2010Prop47
 90
       50
102
RTVSPost2010PropOp47
 70
     1
102
RTVSPost2010Prop48
 90
       50
102
RTVSPost2010PropOp48
 70
     1
102
RTVSPost2010Prop49
280
     0
102
RTVSPost2010PropOp49
 70
     1
102
RTVSPost2010Prop50
 90
       50
102
RTVSPost2010PropOp50
 70
     1
102
RTVSPost2010Prop51ColorIndex
 90
      256
102
RTVSPost2010Prop51ColorRGB
 90
-16777216
102
RTVSPost2010PropOp51
 70
     0
102
RTVSPost2010Prop52
140
1.0
102
RTVSPost2010PropOp52
 70
     0
102
RTVSPost2010Prop53
 90
        2
102
RTVSPost2010PropOp53
 70
     1
102
RTVSPost2010Prop54
  1
strokes_ogs.tif
102
RTVSPost2010PropOp54
 70
     1
102
RTVSPost2010Prop55
280
     0
102
RTVSPost2010PropOp55
 70
     1
102
RTVSPost2010Prop56
140
1.0
102
RTVSPost2010PropOp56
 70
     1
102
RTVSPost2010Prop57
140
1.0
102
RTVSPost2010PropOp57
 70
     1
  0
XRECORD
  5
35D
102
{ACAD_REACTORS
330
35C
102
}
330
35C
100
AcDbXrecord
280
     1
102
RTVSPropertyOp0
 70
     1
102
RTVSPropertyOp1
 70
     1
102
RTVSPropertyOp2
 70
     1
102
RTVSPropertyOp3
 70
     1
102
RTVSPropertyOp4
 70
     1
102
RTVSPropertyOp5
 70
     1
102
RTVSPropertyOp6
 70
     1
102
RTVSPropertyOp7
 70
     1
102
RTVSPropertyOp8
 70
     1
102
RTVSPropertyOp9
 70
     1
102
RTVSPropertyOp10
 70
     1
102
RTVSPropertyOp11
 70
     1
102
RTVSPropertyOp12
 70
     1
102
RTVSPropertyOp13
 70
     1
102
RTVSPropertyOp14
 70
     1
102
RTVSPropertyOp15
 70
     1
102
RTVSPropertyOp16
 70
     1
102
RTVSPropertyOp17
 70
     1
102
RTVSPropertyOp18
 70
     1
102
RTVSPropertyOp19
 70
     1
102
RTVSPropertyOp20
 70
     1
102
RTVSPropertyOp21
 70
     1
102
RTVSPropertyOp22
 70
     1
102
RTVSPropertyOp23
 70
     1
102
RTVSPropertyOp24
 70
     1
102
RTVSPropertyOp25
 70
     1
102
RTVSPropertyOp26
 70
     1
102
RTVSPropertyOp27
 70
     1
102
RTVSPropertyOp28
 70
     1
102
RTVSPropertyOp29
 70
     1
102
RTVSPropertyOp30
 70
     1
102
RTVSPropertyOp31
 70
     1
102
RTVSPropertyOp32
 70
     1
102
RTVSPropertyOp33
 70
     1
102
RTVSPropertyOp34
 70
     1
102
RTVSPropertyOp35
 70
     1
102
RTVSPropertyOp36
 70
     1
102
RTVSPropertyOp37
 70
     1
102
RTVSPropertyOp38
 70
     1
102
RTVSPropertyOp39
 70
     1
102
RTVSPropertyOp40
 70
     1
102
RTVSPropertyOp41
 70
     1
102
RTVSPropertyOp42
 70
     1
102
RTVSPropertyOp43
 70
     1
102
RTVSPropertyOp44
 70
     1
102
RTVSPropertyOp45
 70
     1
102
RTVSPropertyOp46
 70
     1
102
RTVSPropertyOp47
 70
     1
102
RTVSPropertyOp48
 70
     1
102
RTVSPropertyOp49
 70
     1
102
RTVSPropertyOp50
 70
     1
102
RTVSPropertyOp51
 70
     0
102
RTVSPropertyOp52
 70
     0
102
RTVSPropertyOp53
 70
     1
102
RTVSPropertyOp54
 70
     1
102
RTVSPropertyOp55
 70
     1
102
RTVSPropertyOp56
 70
     1
102
RTVSPropertyOp57
 70
     1
102
RTVSPost2010Prop28
280
     0
102
RTVSPost2010PropOp28
 70
     1
102
RTVSPost2010Prop29
280
     1
102
RTVSPost2010PropOp29
 70
     1
102
RTVSPost2010Prop30
280
     1
102
RTVSPost2010PropOp30
 70
     1
102
RTVSPost2010Prop31
280
     0
102
RTVSPost2010PropOp31
 70
     1
102
RTVSPost2010Prop32
280
     0
102
RTVSPost2010PropOp32
 70
     1
102
RTVSPost2010Prop33
280
     0
102
RTVSPost2010PropOp33
 70
     1
102
RTVSPost2010Prop34
280
     0
102
RTVSPost2010PropOp34
 70
     1
102
RTVSPost2010Prop35
280
     0
102
RTVSPost2010PropOp35
 70
     1
102
RTVSPost2010Prop36
280
     0
102
RTVSPost2010PropOp36
 70
     1
102
RTVSPost2010Prop37
 90
       50
102
RTVSPost2010PropOp37
 70
     1
102
RTVSPost2010Prop38
140
0.0
102
RTVSPost2010PropOp38
 70
     1
102
RTVSPost2010Prop39
140
1.0
102
RTVSPost2010PropOp39
 70
     1
102
RTVSPost2010Prop40
 90
        0
102
RTVSPost2010PropOp40
 70
     1
102
RTVSPost2010Prop41ColorIndex
 90
       18
102
RTVSPost2010Prop41ColorRGB
 90
        0
102
RTVSPost2010PropOp41
 70
     1
102
RTVSPost2010Prop42
 90
       50
102
RTVSPost2010PropOp42
 70
     1
102
RTVSPost2010Prop43
 90
        3
102
RTVSPost2010PropOp43
 70
     1
102
RTVSPost2010Prop44ColorIndex
 90
        5
102
RTVSPost2010Prop44ColorRGB
 90
      255
102
RTVSPost2010PropOp44
 70
     1
102
RTVSPost2010Prop45
280
     0
102
RTVSPost2010PropOp45
 70
     1
102
RTVSPost2010Prop46
 90
       50
102
RTVSPost2010PropOp46
 70
     1
102
RTVSPost2010Prop47
 90
       50
102
RTVSPost2010PropOp47
 70
     1
102
RTVSPost2010Prop48
 90
       50
102
RTVSPost2010PropOp48
 70
     1
102
RTVSPost2010Prop49
280
     0
102
RTVSPost2010PropOp49
 70
     1
102
RTVSPost2010Prop50
 90
       50
102
RTVSPost2010PropOp50
 70
     1
102
RTVSPost2010Prop51ColorIndex
 90
      256
102
RTVSPost2010Prop51ColorRGB
 90
-16777216
102
RTVSPost2010PropOp51
 70
     0
102
RTVSPost2010Prop52
140
1.0
102
RTVSPost2010PropOp52
 70
     0
102
RTVSPost2010Prop53
 90
        2
102
RTVSPost2010PropOp53
 70
     1
102
RTVSPost2010Prop54
  1
strokes_ogs.tif
102
RTVSPost2010PropOp54
 70
     1
102
RTVSPost2010Prop55
280
     0
102
RTVSPost2010PropOp55
 70
     1
102
RTVSPost2010Prop56
140
1.0
102
RTVSPost2010PropOp56
 70
     1
102
RTVSPost2010Prop57
140
1.0
102
RTVSPost2010PropOp57
 70
     1
  0
XRECORD
  5
35F
102
{ACAD_REACTORS
330
35E
102
}
330
35E
100
AcDbXrecord
280
     1
102
RTVSPropertyOp0
 70
     1
102
RTVSPropertyOp1
 70
     1
102
RTVSPropertyOp2
 70
     1
102
RTVSPropertyOp3
 70
     1
102
RTVSPropertyOp4
 70
     1
102
RTVSPropertyOp5
 70
     1
102
RTVSPropertyOp6
 70
     1
102
RTVSPropertyOp7
 70
     1
102
RTVSPropertyOp8
 70
     1
102
RTVSPropertyOp9
 70
     1
102
RTVSPropertyOp10
 70
     1
102
RTVSPropertyOp11
 70
     1
102
RTVSPropertyOp12
 70
     1
102
RTVSPropertyOp13
 70
     1
102
RTVSPropertyOp14
 70
     1
102
RTVSPropertyOp15
 70
     1
102
RTVSPropertyOp16
 70
     1
102
RTVSPropertyOp17
 70
     1
102
RTVSPropertyOp18
 70
     1
102
RTVSPropertyOp19
 70
     1
102
RTVSPropertyOp20
 70
     1
102
RTVSPropertyOp21
 70
     1
102
RTVSPropertyOp22
 70
     1
102
RTVSPropertyOp23
 70
     1
102
RTVSPropertyOp24
 70
     1
102
RTVSPropertyOp25
 70
     1
102
RTVSPropertyOp26
 70
     1
102
RTVSPropertyOp27
 70
     1
102
RTVSPropertyOp28
 70
     1
102
RTVSPropertyOp29
 70
     1
102
RTVSPropertyOp30
 70
     1
102
RTVSPropertyOp31
 70
     1
102
RTVSPropertyOp32
 70
     1
102
RTVSPropertyOp33
 70
     1
102
RTVSPropertyOp34
 70
     1
102
RTVSPropertyOp35
 70
     1
102
RTVSPropertyOp36
 70
     1
102
RTVSPropertyOp37
 70
     1
102
RTVSPropertyOp38
 70
     1
102
RTVSPropertyOp39
 70
     1
102
RTVSPropertyOp40
 70
     1
102
RTVSPropertyOp41
 70
     1
102
RTVSPropertyOp42
 70
     1
102
RTVSPropertyOp43
 70
     1
102
RTVSPropertyOp44
 70
     1
102
RTVSPropertyOp45
 70
     1
102
RTVSPropertyOp46
 70
     1
102
RTVSPropertyOp47
 70
     1
102
RTVSPropertyOp48
 70
     1
102
RTVSPropertyOp49
 70
     1
102
RTVSPropertyOp50
 70
     1
102
RTVSPropertyOp51
 70
     0
102
RTVSPropertyOp52
 70
     0
102
RTVSPropertyOp53
 70
     1
102
RTVSPropertyOp54
 70
     1
102
RTVSPropertyOp55
 70
     1
102
RTVSPropertyOp56
 70
     1
102
RTVSPropertyOp57
 70
     1
102
RTVSPost2010Prop28
280
     0
102
RTVSPost2010PropOp28
 70
     1
102
RTVSPost2010Prop29
280
     1
102
RTVSPost2010PropOp29
 70
     1
102
RTVSPost2010Prop30
280
     1
102
RTVSPost2010PropOp30
 70
     1
102
RTVSPost2010Prop31
280
     0
102
RTVSPost2010PropOp31
 70
     1
102
RTVSPost2010Prop32
280
     0
102
RTVSPost2010PropOp32
 70
     1
102
RTVSPost2010Prop33
280
     0
102
RTVSPost2010PropOp33
 70
     1
102
RTVSPost2010Prop34
280
     0
102
RTVSPost2010PropOp34
 70
     1
102
RTVSPost2010Prop35
280
     0
102
RTVSPost2010PropOp35
 70
     1
102
RTVSPost2010Prop36
280
     0
102
RTVSPost2010PropOp36
 70
     1
102
RTVSPost2010Prop37
 90
       50
102
RTVSPost2010PropOp37
 70
     1
102
RTVSPost2010Prop38
140
0.0
102
RTVSPost2010PropOp38
 70
     1
102
RTVSPost2010Prop39
140
1.0
102
RTVSPost2010PropOp39
 70
     1
102
RTVSPost2010Prop40
 90
        0
102
RTVSPost2010PropOp40
 70
     1
102
RTVSPost2010Prop41ColorIndex
 90
       18
102
RTVSPost2010Prop41ColorRGB
 90
        0
102
RTVSPost2010PropOp41
 70
     1
102
RTVSPost2010Prop42
 90
       50
102
RTVSPost2010PropOp42
 70
     1
102
RTVSPost2010Prop43
 90
        3
102
RTVSPost2010PropOp43
 70
     1
102
RTVSPost2010Prop44ColorIndex
 90
        5
102
RTVSPost2010Prop44ColorRGB
 90
      255
102
RTVSPost2010PropOp44
 70
     1
102
RTVSPost2010Prop45
280
     0
102
RTVSPost2010PropOp45
 70
     1
102
RTVSPost2010Prop46
 90
       50
102
RTVSPost2010PropOp46
 70
     1
102
RTVSPost2010Prop47
 90
       50
102
RTVSPost2010PropOp47
 70
     1
102
RTVSPost2010Prop48
 90
       50
102
RTVSPost2010PropOp48
 70
     1
102
RTVSPost2010Prop49
280
     0
102
RTVSPost2010PropOp49
 70
     1
102
RTVSPost2010Prop50
 90
       50
102
RTVSPost2010PropOp50
 70
     1
102
RTVSPost2010Prop51ColorIndex
 90
      256
102
RTVSPost2010Prop51ColorRGB
 90
-16777216
102
RTVSPost2010PropOp51
 70
     0
102
RTVSPost2010Prop52
140
1.0
102
RTVSPost2010PropOp52
 70
     0
102
RTVSPost2010Prop53
 90
        2
102
RTVSPost2010PropOp53
 70
     1
102
RTVSPost2010Prop54
  1
strokes_ogs.tif
102
RTVSPost2010PropOp54
 70
     1
102
RTVSPost2010Prop55
280
     0
102
RTVSPost2010PropOp55
 70
     1
102
RTVSPost2010Prop56
140
1.0
102
RTVSPost2010PropOp56
 70
     1
102
RTVSPost2010Prop57
140
1.0
102
RTVSPost2010PropOp57
 70
     1
  0
XRECORD
  5
34F
102
{ACAD_REACTORS
330
34E
102
}
330
34E
100
AcDbXrecord
280
     1
102
RTVSPropertyOp0
 70
     1
102
RTVSPropertyOp1
 70
     1
102
RTVSPropertyOp2
 70
     1
102
RTVSPropertyOp3
 70
     1
102
RTVSPropertyOp4
 70
     1
102
RTVSPropertyOp5
 70
     1
102
RTVSPropertyOp6
 70
     1
102
RTVSPropertyOp7
 70
     1
102
RTVSPropertyOp8
 70
     1
102
RTVSPropertyOp9
 70
     1
102
RTVSPropertyOp10
 70
     1
102
RTVSPropertyOp11
 70
     1
102
RTVSPropertyOp12
 70
     1
102
RTVSPropertyOp13
 70
     1
102
RTVSPropertyOp14
 70
     1
102
RTVSPropertyOp15
 70
     1
102
RTVSPropertyOp16
 70
     1
102
RTVSPropertyOp17
 70
     1
102
RTVSPropertyOp18
 70
     1
102
RTVSPropertyOp19
 70
     1
102
RTVSPropertyOp20
 70
     1
102
RTVSPropertyOp21
 70
     1
102
RTVSPropertyOp22
 70
     1
102
RTVSPropertyOp23
 70
     1
102
RTVSPropertyOp24
 70
     1
102
RTVSPropertyOp25
 70
     1
102
RTVSPropertyOp26
 70
     1
102
RTVSPropertyOp27
 70
     1
102
RTVSPropertyOp28
 70
     1
102
RTVSPropertyOp29
 70
     1
102
RTVSPropertyOp30
 70
     1
102
RTVSPropertyOp31
 70
     1
102
RTVSPropertyOp32
 70
     1
102
RTVSPropertyOp33
 70
     1
102
RTVSPropertyOp34
 70
     1
102
RTVSPropertyOp35
 70
     1
102
RTVSPropertyOp36
 70
     1
102
RTVSPropertyOp37
 70
     1
102
RTVSPropertyOp38
 70
     1
102
RTVSPropertyOp39
 70
     1
102
RTVSPropertyOp40
 70
     1
102
RTVSPropertyOp41
 70
     1
102
RTVSPropertyOp42
 70
     1
102
RTVSPropertyOp43
 70
     1
102
RTVSPropertyOp44
 70
     1
102
RTVSPropertyOp45
 70
     1
102
RTVSPropertyOp46
 70
     1
102
RTVSPropertyOp47
 70
     1
102
RTVSPropertyOp48
 70
     1
102
RTVSPropertyOp49
 70
     1
102
RTVSPropertyOp50
 70
     1
102
RTVSPropertyOp51
 70
     0
102
RTVSPropertyOp52
 70
     0
102
RTVSPropertyOp53
 70
     1
102
RTVSPropertyOp54
 70
     1
102
RTVSPropertyOp55
 70
     1
102
RTVSPropertyOp56
 70
     1
102
RTVSPropertyOp57
 70
     1
102
RTVSPost2010Prop28
280
     0
102
RTVSPost2010PropOp28
 70
     1
102
RTVSPost2010Prop29
280
     1
102
RTVSPost2010PropOp29
 70
     1
102
RTVSPost2010Prop30
280
     1
102
RTVSPost2010PropOp30
 70
     1
102
RTVSPost2010Prop31
280
     0
102
RTVSPost2010PropOp31
 70
     1
102
RTVSPost2010Prop32
280
     0
102
RTVSPost2010PropOp32
 70
     1
102
RTVSPost2010Prop33
280
     0
102
RTVSPost2010PropOp33
 70
     1
102
RTVSPost2010Prop34
280
     0
102
RTVSPost2010PropOp34
 70
     1
102
RTVSPost2010Prop35
280
     0
102
RTVSPost2010PropOp35
 70
     1
102
RTVSPost2010Prop36
280
     0
102
RTVSPost2010PropOp36
 70
     1
102
RTVSPost2010Prop37
 90
       50
102
RTVSPost2010PropOp37
 70
     1
102
RTVSPost2010Prop38
140
0.0
102
RTVSPost2010PropOp38
 70
     1
102
RTVSPost2010Prop39
140
1.0
102
RTVSPost2010PropOp39
 70
     1
102
RTVSPost2010Prop40
 90
        0
102
RTVSPost2010PropOp40
 70
     1
102
RTVSPost2010Prop41ColorIndex
 90
       18
102
RTVSPost2010Prop41ColorRGB
 90
        0
102
RTVSPost2010PropOp41
 70
     1
102
RTVSPost2010Prop42
 90
       50
102
RTVSPost2010PropOp42
 70
     1
102
RTVSPost2010Prop43
 90
        3
102
RTVSPost2010PropOp43
 70
     1
102
RTVSPost2010Prop44ColorIndex
 90
        5
102
RTVSPost2010Prop44ColorRGB
 90
      255
102
RTVSPost2010PropOp44
 70
     1
102
RTVSPost2010Prop45
280
     0
102
RTVSPost2010PropOp45
 70
     1
102
RTVSPost2010Prop46
 90
       50
102
RTVSPost2010PropOp46
 70
     1
102
RTVSPost2010Prop47
 90
       50
102
RTVSPost2010PropOp47
 70
     1
102
RTVSPost2010Prop48
 90
       50
102
RTVSPost2010PropOp48
 70
     1
102
RTVSPost2010Prop49
280
     0
102
RTVSPost2010PropOp49
 70
     1
102
RTVSPost2010Prop50
 90
       50
102
RTVSPost2010PropOp50
 70
     1
102
RTVSPost2010Prop51ColorIndex
 90
      256
102
RTVSPost2010Prop51ColorRGB
 90
-16777216
102
RTVSPost2010PropOp51
 70
     0
102
RTVSPost2010Prop52
140
1.0
102
RTVSPost2010PropOp52
 70
     0
102
RTVSPost2010Prop53
 90
        2
102
RTVSPost2010PropOp53
 70
     1
102
RTVSPost2010Prop54
  1
strokes_ogs.tif
102
RTVSPost2010PropOp54
 70
     1
102
RTVSPost2010Prop55
280
     0
102
RTVSPost2010PropOp55
 70
     1
102
RTVSPost2010Prop56
140
1.0
102
RTVSPost2010PropOp56
 70
     1
102
RTVSPost2010Prop57
140
1.0
102
RTVSPost2010PropOp57
 70
     1
  0
XRECORD
  5
341
102
{ACAD_REACTORS
330
340
102
}
330
340
100
AcDbXrecord
280
     1
102
RTVSPropertyOp0
 70
     1
102
RTVSPropertyOp1
 70
     1
102
RTVSPropertyOp2
 70
     1
102
RTVSPropertyOp3
 70
     1
102
RTVSPropertyOp4
 70
     1
102
RTVSPropertyOp5
 70
     1
102
RTVSPropertyOp6
 70
     1
102
RTVSPropertyOp7
 70
     1
102
RTVSPropertyOp8
 70
     1
102
RTVSPropertyOp9
 70
     1
102
RTVSPropertyOp10
 70
     1
102
RTVSPropertyOp11
 70
     1
102
RTVSPropertyOp12
 70
     1
102
RTVSPropertyOp13
 70
     1
102
RTVSPropertyOp14
 70
     1
102
RTVSPropertyOp15
 70
     1
102
RTVSPropertyOp16
 70
     1
102
RTVSPropertyOp17
 70
     1
102
RTVSPropertyOp18
 70
     1
102
RTVSPropertyOp19
 70
     1
102
RTVSPropertyOp20
 70
     1
102
RTVSPropertyOp21
 70
     1
102
RTVSPropertyOp22
 70
     1
102
RTVSPropertyOp23
 70
     1
102
RTVSPropertyOp24
 70
     1
102
RTVSPropertyOp25
 70
     1
102
RTVSPropertyOp26
 70
     1
102
RTVSPropertyOp27
 70
     1
102
RTVSPropertyOp28
 70
     1
102
RTVSPropertyOp29
 70
     1
102
RTVSPropertyOp30
 70
     1
102
RTVSPropertyOp31
 70
     1
102
RTVSPropertyOp32
 70
     1
102
RTVSPropertyOp33
 70
     1
102
RTVSPropertyOp34
 70
     1
102
RTVSPropertyOp35
 70
     1
102
RTVSPropertyOp36
 70
     1
102
RTVSPropertyOp37
 70
     1
102
RTVSPropertyOp38
 70
     1
102
RTVSPropertyOp39
 70
     1
102
RTVSPropertyOp40
 70
     1
102
RTVSPropertyOp41
 70
     1
102
RTVSPropertyOp42
 70
     1
102
RTVSPropertyOp43
 70
     1
102
RTVSPropertyOp44
 70
     1
102
RTVSPropertyOp45
 70
     1
102
RTVSPropertyOp46
 70
     1
102
RTVSPropertyOp47
 70
     1
102
RTVSPropertyOp48
 70
     1
102
RTVSPropertyOp49
 70
     1
102
RTVSPropertyOp50
 70
     1
102
RTVSPropertyOp51
 70
     0
102
RTVSPropertyOp52
 70
     0
102
RTVSPropertyOp53
 70
     1
102
RTVSPropertyOp54
 70
     1
102
RTVSPropertyOp55
 70
     1
102
RTVSPropertyOp56
 70
     1
102
RTVSPropertyOp57
 70
     1
102
RTVSPost2010Prop28
280
     0
102
RTVSPost2010PropOp28
 70
     1
102
RTVSPost2010Prop29
280
     1
102
RTVSPost2010PropOp29
 70
     1
102
RTVSPost2010Prop30
280
     1
102
RTVSPost2010PropOp30
 70
     1
102
RTVSPost2010Prop31
280
     0
102
RTVSPost2010PropOp31
 70
     1
102
RTVSPost2010Prop32
280
     0
102
RTVSPost2010PropOp32
 70
     1
102
RTVSPost2010Prop33
280
     0
102
RTVSPost2010PropOp33
 70
     1
102
RTVSPost2010Prop34
280
     0
102
RTVSPost2010PropOp34
 70
     1
102
RTVSPost2010Prop35
280
     0
102
RTVSPost2010PropOp35
 70
     1
102
RTVSPost2010Prop36
280
     0
102
RTVSPost2010PropOp36
 70
     1
102
RTVSPost2010Prop37
 90
       50
102
RTVSPost2010PropOp37
 70
     1
102
RTVSPost2010Prop38
140
0.0
102
RTVSPost2010PropOp38
 70
     1
102
RTVSPost2010Prop39
140
1.0
102
RTVSPost2010PropOp39
 70
     1
102
RTVSPost2010Prop40
 90
        0
102
RTVSPost2010PropOp40
 70
     1
102
RTVSPost2010Prop41ColorIndex
 90
       18
102
RTVSPost2010Prop41ColorRGB
 90
        0
102
RTVSPost2010PropOp41
 70
     1
102
RTVSPost2010Prop42
 90
       50
102
RTVSPost2010PropOp42
 70
     1
102
RTVSPost2010Prop43
 90
        3
102
RTVSPost2010PropOp43
 70
     1
102
RTVSPost2010Prop44ColorIndex
 90
        5
102
RTVSPost2010Prop44ColorRGB
 90
      255
102
RTVSPost2010PropOp44
 70
     1
102
RTVSPost2010Prop45
280
     0
102
RTVSPost2010PropOp45
 70
     1
102
RTVSPost2010Prop46
 90
       50
102
RTVSPost2010PropOp46
 70
     1
102
RTVSPost2010Prop47
 90
       50
102
RTVSPost2010PropOp47
 70
     1
102
RTVSPost2010Prop48
 90
       50
102
RTVSPost2010PropOp48
 70
     1
102
RTVSPost2010Prop49
280
     0
102
RTVSPost2010PropOp49
 70
     1
102
RTVSPost2010Prop50
 90
       50
102
RTVSPost2010PropOp50
 70
     1
102
RTVSPost2010Prop51ColorIndex
 90
      256
102
RTVSPost2010Prop51ColorRGB
 90
-16777216
102
RTVSPost2010PropOp51
 70
     0
102
RTVSPost2010Prop52
140
1.0
102
RTVSPost2010PropOp52
 70
     0
102
RTVSPost2010Prop53
 90
        2
102
RTVSPost2010PropOp53
 70
     1
102
RTVSPost2010Prop54
  1
strokes_ogs.tif
102
RTVSPost2010PropOp54
 70
     1
102
RTVSPost2010Prop55
280
     0
102
RTVSPost2010PropOp55
 70
     1
102
RTVSPost2010Prop56
140
1.0
102
RTVSPost2010PropOp56
 70
     1
102
RTVSPost2010Prop57
140
1.0
102
RTVSPost2010PropOp57
 70
     1
  0
XRECORD
  5
361
102
{ACAD_REACTORS
330
360
102
}
330
360
100
AcDbXrecord
280
     1
102
RTVSPropertyOp0
 70
     1
102
RTVSPropertyOp1
 70
     1
102
RTVSPropertyOp2
 70
     1
102
RTVSPropertyOp3
 70
     1
102
RTVSPropertyOp4
 70
     1
102
RTVSPropertyOp5
 70
     1
102
RTVSPropertyOp6
 70
     1
102
RTVSPropertyOp7
 70
     1
102
RTVSPropertyOp8
 70
     1
102
RTVSPropertyOp9
 70
     1
102
RTVSPropertyOp10
 70
     1
102
RTVSPropertyOp11
 70
     1
102
RTVSPropertyOp12
 70
     1
102
RTVSPropertyOp13
 70
     1
102
RTVSPropertyOp14
 70
     1
102
RTVSPropertyOp15
 70
     1
102
RTVSPropertyOp16
 70
     1
102
RTVSPropertyOp17
 70
     1
102
RTVSPropertyOp18
 70
     1
102
RTVSPropertyOp19
 70
     1
102
RTVSPropertyOp20
 70
     1
102
RTVSPropertyOp21
 70
     1
102
RTVSPropertyOp22
 70
     1
102
RTVSPropertyOp23
 70
     1
102
RTVSPropertyOp24
 70
     1
102
RTVSPropertyOp25
 70
     1
102
RTVSPropertyOp26
 70
     1
102
RTVSPropertyOp27
 70
     1
102
RTVSPropertyOp28
 70
     1
102
RTVSPropertyOp29
 70
     1
102
RTVSPropertyOp30
 70
     1
102
RTVSPropertyOp31
 70
     1
102
RTVSPropertyOp32
 70
     1
102
RTVSPropertyOp33
 70
     1
102
RTVSPropertyOp34
 70
     1
102
RTVSPropertyOp35
 70
     1
102
RTVSPropertyOp36
 70
     1
102
RTVSPropertyOp37
 70
     1
102
RTVSPropertyOp38
 70
     1
102
RTVSPropertyOp39
 70
     1
102
RTVSPropertyOp40
 70
     1
102
RTVSPropertyOp41
 70
     1
102
RTVSPropertyOp42
 70
     1
102
RTVSPropertyOp43
 70
     1
102
RTVSPropertyOp44
 70
     1
102
RTVSPropertyOp45
 70
     1
102
RTVSPropertyOp46
 70
     1
102
RTVSPropertyOp47
 70
     1
102
RTVSPropertyOp48
 70
     1
102
RTVSPropertyOp49
 70
     1
102
RTVSPropertyOp50
 70
     1
102
RTVSPropertyOp51
 70
     0
102
RTVSPropertyOp52
 70
     0
102
RTVSPropertyOp53
 70
     1
102
RTVSPropertyOp54
 70
     1
102
RTVSPropertyOp55
 70
     1
102
RTVSPropertyOp56
 70
     1
102
RTVSPropertyOp57
 70
     1
102
RTVSPost2010Prop28
280
     0
102
RTVSPost2010PropOp28
 70
     1
102
RTVSPost2010Prop29
280
     1
102
RTVSPost2010PropOp29
 70
     1
102
RTVSPost2010Prop30
280
     1
102
RTVSPost2010PropOp30
 70
     1
102
RTVSPost2010Prop31
280
     0
102
RTVSPost2010PropOp31
 70
     1
102
RTVSPost2010Prop32
280
     0
102
RTVSPost2010PropOp32
 70
     1
102
RTVSPost2010Prop33
280
     0
102
RTVSPost2010PropOp33
 70
     1
102
RTVSPost2010Prop34
280
     0
102
RTVSPost2010PropOp34
 70
     1
102
RTVSPost2010Prop35
280
     0
102
RTVSPost2010PropOp35
 70
     1
102
RTVSPost2010Prop36
280
     0
102
RTVSPost2010PropOp36
 70
     1
102
RTVSPost2010Prop37
 90
       50
102
RTVSPost2010PropOp37
 70
     1
102
RTVSPost2010Prop38
140
0.0
102
RTVSPost2010PropOp38
 70
     1
102
RTVSPost2010Prop39
140
1.0
102
RTVSPost2010PropOp39
 70
     1
102
RTVSPost2010Prop40
 90
        0
102
RTVSPost2010PropOp40
 70
     1
102
RTVSPost2010Prop41ColorIndex
 90
       18
102
RTVSPost2010Prop41ColorRGB
 90
        0
102
RTVSPost2010PropOp41
 70
     1
102
RTVSPost2010Prop42
 90
       50
102
RTVSPost2010PropOp42
 70
     1
102
RTVSPost2010Prop43
 90
        3
102
RTVSPost2010PropOp43
 70
     1
102
RTVSPost2010Prop44ColorIndex
 90
        5
102
RTVSPost2010Prop44ColorRGB
 90
      255
102
RTVSPost2010PropOp44
 70
     1
102
RTVSPost2010Prop45
280
     0
102
RTVSPost2010PropOp45
 70
     1
102
RTVSPost2010Prop46
 90
       50
102
RTVSPost2010PropOp46
 70
     1
102
RTVSPost2010Prop47
 90
       50
102
RTVSPost2010PropOp47
 70
     1
102
RTVSPost2010Prop48
 90
       50
102
RTVSPost2010PropOp48
 70
     1
102
RTVSPost2010Prop49
280
     0
102
RTVSPost2010PropOp49
 70
     1
102
RTVSPost2010Prop50
 90
       50
102
RTVSPost2010PropOp50
 70
     1
102
RTVSPost2010Prop51ColorIndex
 90
      256
102
RTVSPost2010Prop51ColorRGB
 90
-16777216
102
RTVSPost2010PropOp51
 70
     0
102
RTVSPost2010Prop52
140
1.0
102
RTVSPost2010PropOp52
 70
     0
102
RTVSPost2010Prop53
 90
        2
102
RTVSPost2010PropOp53
 70
     1
102
RTVSPost2010Prop54
  1
strokes_ogs.tif
102
RTVSPost2010PropOp54
 70
     1
102
RTVSPost2010Prop55
280
     0
102
RTVSPost2010PropOp55
 70
     1
102
RTVSPost2010Prop56
140
1.0
102
RTVSPost2010PropOp56
 70
     1
102
RTVSPost2010Prop57
140
1.0
102
RTVSPost2010PropOp57
 70
     1
  0
ENDSEC
  0
EOF
